Song name
# A B C D E F G H I J K L M N O P Q R S T U V W X Y Z

Pepper - Face Plant tab

-------------------------------------------------------------------------------
			     FACE PLANT - Pepper
-------------------------------------------------------------------------------
Tabbed by: sublimelover
Email: mahuhater@hotmail.com


This is a fun song to play but you will have to listen and play along with the song to 
it down. You can figure out the little fills in there.

 PM= palm mute
 H= hammer on
 P= pull of
 SKA= ska strum pattern
 /= slide up
 \= slide down

(Intro/Verse One) Riff 1
e|-------------------------------------------|
B|-------------------------------------------|
G|----------------------66666666-99999999----| x4
D|----66666666-99999999-66666666-99999999----|
A|----66666666-99999999-44444444-77777777----|
E|----44444444-77777777----------------------|
 PM . . . . . . . . . . . . . . . . . . . .


(Chorus) Riff 2
e|-----------------------------------------------------------------------|
B|-----------------------------------------------------------------------|
G|----6-6-------------6-6---6/8-9-9---6-6--------------------------------|
D|----6-6-------6-6---6-6---6/8-9-9---6-6-------6-6---6666-4444-3333-2222|
A|----4-4---4h6-6-6---4-4---4/6-7-7---4-4---4h6-6-6---6666-4444-3333-2222|
E|--------------4-4-----------------------------4-4---4444-2222-1111-0000|
                                                    PM . . . . . . . . . .


(Verse 2) Riff 1
e|-------------------------------------------|
B|-------------------------------------------|
G|----------------------66666666-99999999----| x4
D|----66666666-99999999-66666666-99999999----|
A|----66666666-99999999-44444444-77777777----|
E|----44444444-77777777----------------------|
 PM . . . . . . . . . . . . . . . . . . . .

(Chorus) Riff 2
e|-----------------------------------------------------------------------|
B|-----------------------------------------------------------------------|
G|----6-6-------------6-6---6/8-9-9---6-6--------------------------------|
D|----6-6-------6-6---6-6---6/8-9-9---6-6-------6-6---6666-4444-3333-2222|
A|----4-4---4h6-6-6---4-4---4/6-7-7---4-4---4h6-6-6---6666-4444-3333-2222|
E|--------------4-4-----------------------------4-4---4444-2222-1111-0000|
                                                    PM . . . . . . . . . .


e|-----------------------------------|
B|-----------------------------------|
G|----5-------8-------6-------9------| x4
D|----6-------9-------6-------9------|
A|----6-------9-------4-------7------|
E|----4-------7----------------------|
 SKA . . . . . . . . . . . . . . . .


(Chorus) Riff 2
e|-----------------------------------------------------------------------|
B|-----------------------------------------------------------------------|
G|----6-6-------------6-6---6/8-9-9---6-6--------------------------------|
D|----6-6-------6-6---6-6---6/8-9-9---6-6-------6-6---6666-4444-3333-2222| x2
A|----4-4---4h6-6-6---4-4---4/6-7-7---4-4---4h6-6-6---6666-4444-3333-2222|
E|--------------4-4-----------------------------4-4---4444-2222-1111-0000|
                                                    PM . . . . . . . . . .

(Verse 3)
e|-------------------------------------------|
B|-------------------------------------------|
G|----------------------66666666-99999999----| x4
D|----66666666-99999999-66666666-99999999----|
A|----66666666-99999999-44444444-77777777----|
E|----44444444-77777777----------------------|
 PM . . . . . . . . . . . . . . . . . . . .


(Outro)
e|-----------------------------------|
B|-----------------------------------|
G|----5-------8-------6-------9------|
D|----6-------9-------6-------9------|
A|----6-------9-------4-------7------|
E|----4-------7----------------------|

(Verse 3)
e|-------------------------------------------|
B|-------------------------------------------|
G|----------------------66666666-99999999----| x4
D|----66666666-99999999-66666666-99999999----|
A|----66666666-99999999-44444444-77777777----|
E|----44444444-77777777----------------------|
 PM . . . . . . . . . . . . . . . . . . . .

(Chorus) Riff 2
e|-----------------------------------------------------------------------|
B|-----------------------------------------------------------------------|
G|----6-6-------------6-6---6/8-9-9---6-6--------------------------------|
D|----6-6-------6-6---6-6---6/8-9-9---6-6-------6-6---6666-4444-3333-2222| x2
A|----4-4---4h6-6-6---4-4---4/6-7-7---4-4---4h6-6-6---6666-4444-3333-2222|
E|--------------4-4-----------------------------4-4---4444-2222-1111-0000|
                                                    PM . . . . . . . . . .


Thats pretty much it. Just mess around with these riffs and you will get it down. 
or send me a Email with any questions or comments you may have.
Thanx!
Tap to rate this tab
# A B C D E F G H I J K L M N O P Q R S T U V W X Y Z