Song name
# A B C D E F G H I J K L M N O P Q R S T U V W X Y Z

Pepper - Zickys Song tab

Intro

|--------------------------------------------------------------------------|
|--------------------------------------------------------------------------|
|--------------------------------------------------------------------------|
|-------------------------------------------------------66-----------------|
|------77--------44---77------------66----------44---77----77--------------|
|---55---------------------------44----------------------------------------|

Verse

|---5-----------------5-----------------------5----------------------------|
|------5-----------6------------4----------6-----6-------------------------|
|---------6-----7------------4----------7-----------7----------------------|
|------------------------6-------------------------------------------------|
|--------------------------------------------------------------------------|
|--------------------------------------------------------------------------|

Chorus

|---5------4------4------4-------------------------------------------------|
|---5------5------4------5-------------------------------------------------|
|---6------6------4------6-------------------------------------------------|
|---7------6------6------6-------------------------------------------------|
|---7------4------6------4-------------------------------------------------|
|---5------x------4------x-------------------------------------------------|

-palm mute the intro
-figure out the strumming for chorus

sorry, i can't figure out the solo

REPRESENT 808!


Tap to rate this tab
# A B C D E F G H I J K L M N O P Q R S T U V W X Y Z