Guitaretab - guitar tabs
Song name
# A B C D E F G H I J K L M N O P Q R S T U V W X Y Z

Peppermint Creeps - Lesbian tab

BAND: Peppermint Creeps
ALBUM: Animatron X
SONG: Lesbian

The Peppermint Creeps are: Macy Malone    = Vocals/Guitar
                           Robbie Styles  = Guitar/backup vocals
                           Eddie Electra  = Bass/backup vocals
                           Traci Michaelz = Drums




this song is played on (low to high) DGCFAD tunning


d |:-----------------R------------------------------:|
A |:-----------------E------------------------------:|
F |:-4-4-------------P----4-4-----------------------:|
C |:-4-4-4-4-6-6-2-2-E-2-4-4-4-4-6-6-2-2-2-2-2-2-4-:|
G |:-2-2-4-4-6-6-2-2-A----2-2-4-4-6-6-2-2-2-2-2-2-4-:|
D |:-----2-2-4-4-0-0-T--------2-2-4-4-0-0-0-0-0-0-2-:|
			            ^don't let ring


d |:-------------------------------------------------------:|
A |:-------------------------------------------------------:|
F |:-4-4-4-----------------------4-4-4---------------------:|
C |:-4-4-4-4-4-4-4-2-2-2-4-4-4-4-4-4-4-4-4-4-4-2-2-2-2-2-2-:|
G |:-2-2-2-4-4-4-4-2-2-2-4-4-4-4-2-2-2-4-4-4-4-2-2-2-2-2-2-:|
D |:-------2-2-2-2-0-0-0-2-2-2-2-------2-2-2-2-0-0-0-0-0-0-:|
				      ^don't let ring


d |:----------------------------------------------------------------R--:|
A |:----------------------------------------------------------------E--:|
F |:-4-4-4-4-4-4-4-4------------------------------------------------P--:|
C |:-4-4-4-4-4-4-4-4-4-4-4-4-4-4-4-4-2-2-x-x-x-2-2----2-2-x-x-x-2-2-E--:|
G |:-2-2-2-2-2-2-2-2-4-4-4-4-4-4-4-4-2-2-x-x-x-2-2----2-2-x-x-x-2-2-A--:|
D |:-----------------2-2-2-2-2-2-2-2-0-0-x-x-x-0-0----0-0-x-x-x-0-0-T--:|


d |:-------------------------------------:|
A |:-------------------------------------:|
F |:-------------------------------------:|
C |:-4--4-4-4-4-6--6-6-6-6-2--2-2-2-2--4-:|
G |:-4--4-4-4-4-6--6-6-6-6-2--2-2-2-2--4-:|
D |:-2--2-2-2-2-4--4-4-4-4-0--0-0-0-0--2-:|
      PM~~~~~~~  PM~~~~~~~  PM~~~~~~~  ^don't let ring


d |:-------------------------------------------------------:|
A |:-------------------------------------------------------:|
F |:-4-4-4-----------------------4-4-4---------------------:|
C |:-4-4-4-4-4-4-4-2-2-2-4-4-4-4-4-4-4-4-4-4-4-2-2-2-2-2-2-:|
G |:-2-2-2-4-4-4-4-2-2-2-4-4-4-4-2-2-2-4-4-4-4-2-2-2-2-2-2-:|
D |:-------2-2-2-2-0-0-0-2-2-2-2-------2-2-2-2-0-0-0-0-0-0-:|
				      ^don't let ring


d |:-------------------------------------------------------:|
A |:-------------------------------------------------------:|
F |:-4-4-4-----------------------4-4-4---------------------:|
C |:-4-4-4-4-4-4-4-2-2-2-4-4-4-4-4-4-4-4-4-4-4-2-2-2-4-4-4-:|
G |:-2-2-2-4-4-4-4-2-2-2-4-4-4-4-2-2-2-4-4-4-4-2-2-2-4-4-4-:|
D |:-------2-2-2-2-0-0-0-2-2-2-2-------2-2-2-2-0-0-0-2-2-2-:|
   PM~~~~~~~~~~~~~~~~~~~~~~~~~~~~~~~~~~~~~~~~~~~~~~~~~~~~~ faster strumming

[ Tab from: http://www.guitaretab.com/p/peppermint-creeps/118333.html ]
d |:-----------------R------------------------------:|
A |:-----------------E------------------------------:|
F |:-4-4-------------P----4-4-----------------------:|
C |:-4-4-4-4-6-6-2-2-E-2-4-4-4-4-6-6-2-2-2-2-2-2-4-:|
G |:-2-2-4-4-6-6-2-2-A----2-2-4-4-6-6-2-2-2-2-2-2-4-:|
D |:-----2-2-4-4-0-0-T--------2-2-4-4-0-0-0-0-0-0-2-:|
			            ^don't let ring


d |:----------------------------------------------------------------R--:|
A |:----------------------------------------------------------------E--:|
F |:-4-4-4-4-4-4-4-4------------------------------------------------P--:|
C |:-4-4-4-4-4-4-4-4-4-4-4-4-4-4-4-4-2-2-x-x-x-2-2----2-2-x-x-x-2-2-E--:|
G |:-2-2-2-2-2-2-2-2-4-4-4-4-4-4-4-4-2-2-x-x-x-2-2----2-2-x-x-x-2-2-A--:|
D |:-----------------2-2-2-2-2-2-2-2-0-0-x-x-x-0-0----0-0-x-x-x-0-0-T--:|


d |:-------------------------------------:|
A |:-------------------------------------:|
F |:-------------------------------------:|
C |:-4--4-4-4-4-6--6-6-6-6-2--2-2-2-2--4-:|
G |:-4--4-4-4-4-6--6-6-6-6-2--2-2-2-2--4-:|
D |:-2--2-2-2-2-4--4-4-4-4-0--0-0-0-0--2-:|
      PM~~~~~~~  PM~~~~~~~  PM~~~~~~~  ^don't let ring


d |:-------------------------------------------------------:|
A |:-------------------------------------------------------:|
F |:-4-4-4-----------------------4-4-4---------------------:|
C |:-4-4-4-4-4-4-4-2-2-2-4-4-4-4-4-4-4-4-4-4-4-2-2-2-2-2-2-:|
G |:-2-2-2-4-4-4-4-2-2-2-4-4-4-4-2-2-2-4-4-4-4-2-2-2-2-2-2-:|
D |:-------2-2-2-2-0-0-0-2-2-2-2-------2-2-2-2-0-0-0-0-0-0-:|
				      ^don't let ring


d |:-------------------------------------------------------:|
A |:-------------------------------------------------------:|
F |:-4-4-4-----------------------4-4-4---------------------:|
C |:-4-4-4-4-4-4-4-2-2-2-4-4-4-4-4-4-4-4-4-4-4-2-2-2-4-4-4-:|
G |:-2-2-2-4-4-4-4-2-2-2-4-4-4-4-2-2-2-4-4-4-4-2-2-2-4-4-4-:|
D |:-------2-2-2-2-0-0-0-2-2-2-2-------2-2-2-2-0-0-0-2-2-2-:|
   PM~~~~~~~~~~~~~~~~~~~~~~~~~~~~~~~~~~~~~~~~~~~~~~~~~~~~~ faster strumming


d |:-------------------------------------:|
A |:-------------------------------------:|
F |:-------------------------------------:|
C |:-4--4-4-4-4-6--6-6-6-6-2--2-2-2-2--4-:|
G |:-4--4-4-4-4-6--6-6-6-6-2--2-2-2-2--4-:|
D |:-2--2-2-2-2-4--4-4-4-4-0--0-0-0-0--2-:|
      PM~~~~~~~  PM~~~~~~~  PM~~~~~~~  ^don't let ring



d |:------------------------------:|
A |:----------------------0-2PH~--:|
F |:-2-2--2--2--2-2-2-2-3---------:|
C |:-2-2--2--2--2-2-2-------------:|
G |:-0-0--0--0--0-0-0-------------:|
D |:------------------------------:|

~awesome solo part that i don't wanna figure out right now~


blah, figure out the rest...if you know this band and this song then it'll come to ya.



PEPPERMINT CREEPS RULE! 

http://www.peppermintcreepsonline.com/