Per-olov Kindgren - Here There And Everywhere tab

#----------------------------------PLEASE NOTE---------------------------------#
#This file is the author's own work and represents their interpretation of the #
#song. You may only use this file for private study, scholarship, or research. #
#------------------------------------------------------------------------------##

 
Date:  19.06.2010
Tabbed by Peter Tuyp(peter.tuyp@wxs.nl)

Subject:
Beatles - Here there and everywhere 
Performed bij Per Olov Kindgren 
http://www.youtube.com/watch?v=sVQV6p8Dly8&feature=related

Chords:
G	320003
Bm	224432
Am	x02210
D7	x00212
C	032010
F#m7	2x220x
B7	x21202
Em	022000
Em7/g	320030
D7	x5453x
F#/d    x543xx
Bbes	6x333x
Gm	355333
Cm	335543
G5	320033
Am7	x02213

^	appregio


  G       Bm    Am        D7
|---------------------0-3---2------|
|-------0-3-3-3-----1-----1-1------|
|-----0-------------2-----2---2----|
|---0---------4---2-----0----------|
|---------2-----0------------------|
|-3--------------------------------|

  G       Am      Bm      C       G       Am
|-3-------------------5-3-----0----------------------|
|-----0-------1-----3-------1---3-----3-------1------|
|---0---------2-2---------------------0-------2------|
|-------0---2-----------------------0---0---2---2----|
|---------0-------2-------3---------------0----------|
|-3-------------------------------3------------------|

  Bm      C       F#m7    B7       F#m7    B7      Em      Em7/g   Am      D7 
|-------0------------------------------------------------2---0------------------------|
|-0-1-3---------0-----0-0-----0---^0-1-0-0-----0-------0-0---0---3-------------3------|
|-----------0-2-------2-2---2-2-2-^2---2---------2-0-2-----------------2--------------|
|-------------------2-------------^2---------1-----------------0-----2---2---4---4----|
|-2-------3---------------2----------------2-----------------------0-------5----------|
|-----------------2---------------^2---------------0-------3--------------------------|

   G       Am      Bm      C       G       Am
|----------------------5-3-----0----------------------|
|--------------1-----3-------1---3-------------1------|
|-^0-----------2-2-4-------------------0-------2------|
|------0-----2-----------------------0---0---2---2----|
|----2---2-0-------2-------3---------------0----------|
|-^3-------------------------------3------------------|


  Bm      C       F#m7    B7       F#m7    B7      Em      Em7/g   Am      
|-------0------------------------------------------------2---0----------------|
|-0-1-3---------0-----0-0-----0---^0-1-0-0-----0-------0-0---0----------------|
|-----------0-2-------2-2---------^2---2-------2-2-0-2-----------2-----2------|
|-------------------2-------1-----^2---------1-----------------0-----2---2----|
|-2-------3---------------2----------------2-----------------------0----------|
|-----------------2---------------^2---------------0-------3------------------|

  D7   F#/d Bbes    Gm      Cm      D7  F#/d  Gm                   
|----------------------------------------------------------------|
|----------^3-6-0-------------3-4------------^3------------------|
|---2-^3-5-^3-----------5-3-5---5-5-2-2-^3-5----3----------------|
|-0---^4---^3-----------------------0---^4---^5-----5-------0----|
|-----^5--------------5-----3-----------^5---^5---5-----0-1------|
|----------^6-----5-3---------------------------------3----------|

  Cm      D7  F#/d 
|---------------------|
|---3-4---------------|
|-5---5-5-2-2-^3-5----|
|---------0---^4------|
|-3-----------^5------|
|---------------------|

   G5         Am     Bm       C       G5      Am
|------3---^3------------5-3------0----------------------|
|-^3---3--------1------3--------1---3-----3-------1------|
|---------------0-2-^4-------^0-----4-----4-------2------|
|-------------------^4-------^2---------0---0---2---2----|
|----5---5-^0-0-----^2-------^3---------------0----------|
|-^3----------------^2----------------3------------------|

   C                 F#m7    B7       F#m7    B7      Em      Em7/g   Am      D7
|-----------------------------------------------------------2---0-------------------2-|
|-^0-1-3-3/5-------0-----0-0-----0---^0-1-0-0-------0-----0-----------------------1---|
|----0-0-2/5---0---------2---------2-^2---2-------2---0-2-----------2-----2-----2-----|
|-^2-------------7-----2-------1-----^2---------1-----------------0-----2---2-0-------|
|-^3---------3---------------2-------^0-------2-----------------------0---------------|
|--------------------2---------------^2---------------0-------3-----------------------|

  G       Am      Bm      C       G       Am       
|-3-------------------5-3-----0----------------------|
|-----0-------1-----3-------1-1-3-----0-------1------|
|-----0-------2---4-------------------0-------2------|
|---0---0---2-----------------------0---0---2---2----|
|---------0-----0-2-------3---------------0----------|
|-3-------------------------------3------------------|

  Bm      C       F#m7    B7       F#m7    B7      Em      Em7/g     Am
|-------0------------------------------------------------2---0----------------|
|-0-1-3---------0-----0-0-----0-0-^0-1-0-0-------0-----0-0---0---3------------|
|-----------0-2-------2-2---2-2-2-^2---2-2-----2---0-2-----------------2------|
|-------------------2-------------^2---------1-----------------0-----2---2----|
|-2-------3---------------2-------^0-------2-----------------------0----------|
|-----------------2---------------^2---------------0-------3------------------|

   D7   F#/d Bbes    Gm      Cm      D7   F#/d  Gm
|--------------------------------------------------------------------|
|-^1--------^3-6-0-------------3-4-------------^3--------------------|
|-^2-2/^3-5-^3-----------5-3-5---5-5-2-2-2/3-5----3------------------|
|-^0---^4---^3-----------------------0---3/4----------5-------0------|
|------^5--------------5-----3-----------4/5--------5-----0-1---3----|
|-----------^6-----5-3-------------------------^3-------3------------|

  Cm      D7    F#/d   G     Am7 Am   Bm       C       G       Am
|----------------------------3------------5-3------0---------------------|
|---3-4-------------^3-------1---1------3--------1---3-----0-------1-----|
|-5-----5-2-2-2/3-5-^4---4---2---0-2-^4-------^0-----0-----0-------2-2---|
|-5---5---0---3/4---^5---5-----2-----^4-------^2---------0---0---2-------|
|-3-----------4/5---^5-5---5-0-------^2-------^3---------------0---------|
|-------------------^3---------------------------------3-----------------|

  C                   F#m7    B7       F#m7    B7      Em      Em7/g
|------------------------------------------------------------2---0------|
|-0-1/3-3/5-5-------0---0-0-0---------^0-1-0-0-------0-----0-0----------|
|---2/4-4/5-5---0-------2-2-2-----2---^2---2-2-----2---0-2-----------2--|
|-----------------7-------------1---1-^2---------1-----------------0----|
|-2-----------3---------------2-------^0-------2------------------------|
|---------------------2---------------^2---------------0-------3--------|

  Am      C       G       Am      Bm       C
|----------------------------------------------0-3----|
|---------------------0-3-0-----0-3----------1--------|
|-----2-----0-0-0-0-2---------2-2-----4---^0----------|
|---2---0-------------------2-------4---4-^2----------|
|-0-------3---------------0-------2-------^3----------|
|-----------------3-----------------------------------|

  G       Am7      G       C       
|-3---3---3---3--------0-2-3-------7---------------|
|-0---0---1---1---^0-3-----------1-------0---------|
|-0---0---2---2----------------0-------0---<12>----|
|---0---0---2---2------------2-------0-------------|
|---------0-------^2-------3-----------------------|
|-3---------------^3---------------3---------------|
Tap to rate this tab
 
# A B C D E F G H I J K L M N O P Q R S T U V W X Y Z