Pere Ubu - 30 Seconds Over Tokyo tab

-------------------------------------------------------------------------------
			     30 Seconds Over Tokyo - Pere Ubu
-------------------------------------------------------------------------------
Tabbed by: hassanisobar
Email: i50bar@o2.co.uk

Tuning: Standard


e|----12-----12---------7----|
B|----12-----13----8----8/7--|
G|----12-----12----9----7----|
D|-----------------9---------|
A|---------------------------|
E|---------------------------|

2nd Gtr (intro)

e|----13-----13-----13-------|
B|------12-----12-----12-----|
G|--------11-----11-----11---|
D|---------------------------|
A|---------------------------|
E|---------------------------|

2nd Gtr (Verse)
e|---------------------------|
B|---------------------------|
G|---------------------------|
D|-----2--0------------------|
A|-----------3--2------------|
E|--0--------------3--2------|
Tap to rate this tab
 
# A B C D E F G H I J K L M N O P Q R S T U V W X Y Z