Song name
# A B C D E F G H I J K L M N O P Q R S T U V W X Y Z

Pere Ubu - 30 Seconds Over Tokyo tab

-------------------------------------------------------------------------------
			     30 SECONDS OVER TOKYO - Pere Ubu
-------------------------------------------------------------------------------
Tabbed by: hassanisobar
Email:

Tuning: Standard

e|--12--\8-----7-----7-7-----|
B|--12--\8-----8-----8p7-----|
G|--12--\9-----9-----7-7-----|
D|--x----x-----x-----x-x-----|
A|--x----x-----x-----x-x-----|
E|--x----x-----x-----x-x-----|

2nd Gtr (intro)

e|----13-----13-----13-------|
B|------12-----12-----12-----|
G|--------11-----11-----11---|
D|---------------------------|
A|---------------------------|
E|---------------------------|

2nd Gtr (Verse)
e|---------------------------|
B|---------------------------|
G|---------------------------|
D|-----2--0------------------|
A|-----------3--2------------|
E|--0--------------3--2------|

************************************

| \   slide down
| p   pull-off


************************************
Tap to rate this tab
 
# A B C D E F G H I J K L M N O P Q R S T U V W X Y Z