Guitaretab - guitar tabs
Song name
# A B C D E F G H I J K L M N O P Q R S T U V W X Y Z

Perfect - Nie Placz Ewka tab

Riff:

|----0---||----2---||----0---||----0---||
|---2-2--||---2-2--||---0-0--||---0-0--||
|--2---2-||--2---2-||--1---1-||--1---1-||
|-2-----2||-4-----2||-2-----2||-2-----2||
|--------||--------||--------||--------||
|--------||--------||--------||--------||

Chorus:
[ Tab from: http://www.guitaretab.com/p/perfect/279770.html ]
|----2---||----0---||-0--0---||----2---||
|---3-3--||---3-3--||--2--0--||---2-2--||
|--4---4-||--2---2-||---2--1-||--2---2-||
|-4-----4||-0-----0||--------||-4-----4||
|--------||--------||--------||--------||
|--------||--------||--------||--------||

|----0---||----2---||----0---||----0---||
|---0-0--||---3-3--||---2-2--||---2-2--||
|--1---1-||--2---2-||--2---2-||--2---2-||
|-2-----2||-0-----0||-2-----2||-2-----2||
|--------||--------||--------||--------||
|--------||--------||--------||--------||
Related for Nie Placz Ewka tab
×
Best way to learn
"Nie Placz Ewka"