Song name
# A B C D E F G H I J K L M N O P Q R S T U V W X Y Z

Perfect - Oczy Czarne tab

Oczy czarne by Perfect

Tabbed by Kamil vel Camillos



 |       |       |       |        |       |       |       |        
|--------------------------------|10---- 10b------------------------|
|----13v-13v-15--13v-------------|12br---12b--------------12v-12v-13|
|--------------------------------|----------------------------------|
|--------------------------------|----------------------------------|
|--------------------------------|----------------------------------|
|--------------------------------|----------------------------------|
 
 |       |       |       |          |       |       |       |        
|----------------------------------|---------------------------------|
|12----10b----10b------------------|---------------------------------|
|------0-----0---------------------|9-8-9-10-9-7-5-4-2-1-------------|
|----------------------------------|--------------------3-2-------0--|
|----------------------------------|------------------------3-2-2----|
|----------------------------------|---------------------------------|
 
 |       |       |       |        |       |       |       |        
|--------------------------------|--------------------------------|
|--------------------------------|--------------------------------|
|--------------------------------|--9-8-9-10v---9-----9-8-9-10v---|
|------------2h0-----------------|--------------------------------|
|2-3-2---2h0h------2-------2v----|--------------------------------|
|--------------------------0-----|--------------------------------|
 
 |       |       |       |        |       |       |       |        
|--------------------------------|--------------------------------|
|----------1010v-9v----------12--|121312v---10------1313--1513v---|
|9-----109-----------------------|--------------------------------|
|--------------------------------|--------------------------------|
|--------------------------------|--------------------------------|
|--------------------------------|--------------------------------|
 
 |       |       |       |        |       |       |       |        
|--------------------------------|---------------------------------|
|12----121213v---12v---10v-------|---------------------------------|
|--------------------------------|--9-8-9-10-9-7-5-7-5-4-2---------|
|--------------------------------|------------------------3-2-0----|
|--------------------------------|------------------------------3v-|
|--------------------------------|---------------------------------|
 
 |       |       |       |        |       |       |       |        
|----------0-0-------------------|--------------------------------|
|----------1-1-------------------|--------------------------------|
|----------2-2-------------------|--------------------------------|
|----------2-2-------------------|--------------------------------|
|2---0-----0-0-------------------|--------------------------------|
|----------0-0-------------------|--------------------------------|
Tap to rate this tab
# A B C D E F G H I J K L M N O P Q R S T U V W X Y Z