Song name
# A B C D E F G H I J K L M N O P Q R S T U V W X Y Z

Pergamum - Fingerkiller tab

--12---14---15--------13/15---17------14-----15/18----12/21-----------|
------13------17/19---------14---------------------14---------12------|
--15----------------16---------------13-------15----------------------|
----------------------------------------------------------------------| 2x
----------------------------------------------------------------------|
----------------------------------------------------------------------|


--14---15----15---13----13/18----12-----15/18-13------13-----14----13-|  This is 
----------14----------15--------15----15--------------15-15--16-------|  played
--14----------------16-------19-----------13------12----------14---14-|  very   
----------------------------------------------------------------------|  fucking
----------------------------------------------------------------------|  Fast!!
----------------------------------------------------------------------| 

I just wanted to make this, i dont know why....
BTW if someone is able to play this, put it on youtube under the name:
Uzz's U-G Tab ''Fingerkiller''  
Tap to rate this tab
 
# A B C D E F G H I J K L M N O P Q R S T U V W X Y Z