Periphery - Jetpacks Was Yes tab

-------------------------------------------------------------------------------
                             Jetpacks Was Yes! - Periphery		
-------------------------------------------------------------------------------
Tabbed by:JDskate
check out my cover on youtube:
http://www.youtube.com/watch?v=u8CYkzoQJPk 

Tuning:Standard

e|---------------------------------------------------------------------------|
B|------------------------------------------------------------------------11-|
G|-----3---3/5---------------3---3/10-----10/12---------------10-12----------|
D|-7\5---5--------3---3---5~---5-------13---------12-10h12h13-------13-10----|
A|--------------6---6---6----------------------------------------------------|
E|---------------------------------------------------------------------------|

e|-----11--12p11------------12---8h10--------------------------------------|
B|---------------12-----12------------11--------11-------------------------|
G|------------------11-------------------10-8\7----7h8p7-------------------|
D|-13----------------------------------------------------10----8-10-10~--8-|
A|----------------------------------------------------------10-------------|
E|-------------------------------------------------------------------------|

e|-----------------------------------------------------------------10-----|
B|------------------------------------------------------11----------------|
G|-5/7h8-5/7h8-5/7-----------------------------------------10----------12-|
D|------------------10p8--------------------------12/13-------12----------|
A|-----------------------10p8------------------10-------------------------|
E|----------------------------10h11p10~~--11-8----------------------------|

e|-15----------11h13-----------11-22b23br22-----------------------------|
B|-------------------11----------------------23----------------23-------|
G|----15\12-------------10\8\7------------------24-19----20-22----19-20-|
D|----------10----------------------------------------20----------------|
A|----------------------------------------------------------------------|
E|----------------------------------------------------------------------|

e|-----------------|
B|-----------------|
G|-19b20br19-------|
D|-----------22\\\-|
A|-----------------|
E|-----------------|




************************************

| /   slide up
| \   slide down
| h   hammer-on
| p   pull-off
| ~   vibrato
| +   harmonic
| x   Mute note
| b   Bend
| pb  Pre-bend
| br  Bend release
| pbr Pre-bend release
| brb Bend release bend

************************************
Tap to rate this tab
 
# A B C D E F G H I J K L M N O P Q R S T U V W X Y Z