Periphery - Zyglrox tab

Artist: Periphery
Song: Zyglrox
Album: Periphery
Tabbed by drawnacrol
Tuning: D A F C G A 
Cover Video: http://www.youtube.com/watch?v=Ftl7RxvnZgU

Guitar Solo:

|------------------------------------------------------------------------------|
|-------------------12---------------------------------------------------------|
|--14--11--12---14------11--11-11-11--11h12p11---------------------------------|
|-----------------------------------------------14--13------13-----14--14/17---|
|-------------------------------------------------------14-----14--------------|
|------------------------------------------------------------------------------|

|-----------------------------------------------------------------------|
|-------------17--17b19r17b19~~~r17---13-13-13/-16----------------------|
|--16--17~~~----------------------------------------14--16~~~---14--16--|
|-----------------------------------------------------------------------|
|-----------------------------------------------------------------------|
|-----------------------------------------------------------------------|

|--------19h20-19--20--19--20h23---------20h23p20----------20h23p20--------|
|--19---------------------------------22----------22----22----------22-----|
|----------------------------------23----------------23----------------23--|
|--------------------------------------------------------------------------|
|--------------------------------------------------------------------------|
|--------------------------------------------------------------------------|

|-------------------------------------------------------------|
|---------------------19--20----------19--20------------------|
|------------20--21-----------17~~~-----------15~~~---17------|
|-------------------------------------------------------------|
|--18~~--18---------------------------------------------------|
|-------------------------------------------------------------|

|-----------------------------------16--19\-----|
|-------------------------------18--------------|
|--16----------------16------16-----------------|
|-----18---------18------18---------------------|
|--------17--20---------------------------------|
|-----------------------------------------------|


Guitar Solo in E standard tuning: E A D G B E

|-----------------------------------------------------------------------|
|------------------10---------------------------------------------------|
|--12--9--10---12-----9--9-9-9--9h10p9----------------------------------|
|---------------------------------------12--11-------11-----12--12/15---|
|----------------------------------------------12-------12--------------|
|-----------------------------------------------------------------------|

|-----------------------------------------------------------------------|
|-------------15--15b17r15b17~~~r15---11-11-11/-14----------------------|
|--14--15~~~----------------------------------------12--14~~~---12--14--|
|-----------------------------------------------------------------------|
|-----------------------------------------------------------------------|
|-----------------------------------------------------------------------|

|--------17h18-17--18--17--18h21---------18h21p18----------18h21p18--------|
|--17---------------------------------20----------20----20----------20-----|
|----------------------------------21----------------21----------------21--|
|--------------------------------------------------------------------------|
|--------------------------------------------------------------------------|
|--------------------------------------------------------------------------|

|-------------------------------------------------------------|
|---------------------17--18----------17--18------------------|
|------------18--19-----------15~~~-----------13~~~---15------|
|-------------------------------------------------------------|
|--16~~--16---------------------------------------------------|
|-------------------------------------------------------------|

|-----------------------------------14--17\-----|
|-------------------------------16--------------|
|--14----------------14------14-----------------|
|-----16---------16------16---------------------|
|--------15--18---------------------------------|
|-----------------------------------------------|
Tap to rate this tab
 
# A B C D E F G H I J K L M N O P Q R S T U V W X Y Z