Song name
# A B C D E F G H I J K L M N O P Q R S T U V W X Y Z

Periphery - Jetpacks Was Yes tab

Artist: Periphery
Song: Jetpacks Was Yes! v2.0
Album: Icarus EP
Tabbed by drawnacrol
Tuning: Drop C ( C G C F A D )

Please watch my cover video:
http://www.youtube.com/watch?v=clTaBPkQUjc

|----------------------------------------------------------------------|
|----------------------------------------------------------------------|
|----------------------------------------------------------6h8~~-------|
|---------6--------8~~---------------------------6---------------------|
|--6/8--------8---------------4h6p4h6p4--6/8---------8-----------------|
|----------------------------------------------------------------------|

|-------------------------------------------------------------8--------|
|----------------------------------------6-----------9-----------------|
|--6--8b10r8b10r8~~~-----5------5-6-8-------6-------------6--------6---|
|---------------------------8------------------8-----------------------|
|----------------------------------------------------------------------|
|----------------------------------------------------------------------|

|---9p8---------------------------9-----7/8----------------------------|
|---------9----------------9-------------------9----------------9------|
|-------------8b10r8-------------------------------8-------------------|
|------------------------------------------------------11--10----------|
|----------------------------------------------------------------------|
|----------------------------------------------------------------------|

|----------------------------------------------------------------------|
|----------------------------------------------------------------------|
|-----------------------------------------------6-----------6----------|
|--10h11p10--8--------6--8---8~~~-----6--8/10--------8/10-------10-----|
|-----------------8----------------------------------------------------|
|----------------------------------------------------------------------|

|----------------------------------------------------------------------|
|------------------------------------------------------9---------------|
|-----------------------------------------------6--8-------8---6-------|
|--8p6------------------------------------10---------------------------|
|--------8p6--------------------------8--------------------------------|
|--------------9------8b9r8---9---6------------------------------------|

|--8-------------------------------------------------------------------|
|------9-----------18-------------14--16---------------------13--------|
|----------8----------17------------------13---------------------------|
|------------------------15\13-----------------13\11---10--------------|
|----------------------------------------------------------------------|
|----------------------------------------------------------------------|

|--20b21r20--16-----------------------16-------------------------------|
|----------------18-----------14--16-------13b14r13--14--13h14p13------|
|--------------------17--------------------------------------------13--|
|------------------------18--------------------------------------------|
|----------------------------------------------------------------------|
|----------------------------------------------------------------------|

|----------------------------------------------------------------------|
|----------------------------------------------------------------------|
|--15b17r15b17-------(17)r15-------------------------------------------|
|----------------------------------------------------------------------|
|----------------------------------------------------------------------|
|----------------------------------------------------------------------|


Tuning: Drop D ( D A D G B E )

|----------------------------------------------------------------------|
|----------------------------------------------------------------------|
|----------------------------------------------------------8h10~~------|
|---------8--------10~~--------------------------8---------------------|
|--8/10-------10--------------6h8p6h8p6--8/10--------10----------------|
|----------------------------------------------------------------------|

|-------------------------------------------------------------10-------|
|----------------------------------------8-----------11----------------|
|--8--10b12r10b12r10~~---7------7-8-10------8-------------8--------8---|
|---------------------------10-----------------10----------------------|
|----------------------------------------------------------------------|
|----------------------------------------------------------------------|

|--11p10--------------------------11-----9/10--------------------------|
|---------11---------------11------------------11---------------11-----|
|-------------10b12r10-----------------------------10------------------|
|------------------------------------------------------13--12----------|
|----------------------------------------------------------------------|
|----------------------------------------------------------------------|

|----------------------------------------------------------------------|
|----------------------------------------------------------------------|
|-----------------------------------------------8-----------8----------|
|--12h13p12--10-------8--10--10~~~----8--10/12------10/12-------12-----|
|-----------------10---------------------------------------------------|
|----------------------------------------------------------------------|

|----------------------------------------------------------------------|
|--------------------------------------------------------11------------|
|-------------------------------------------------8--10------10--8-----|
|--10p8---------------------------------------12-----------------------|
|---------10p8---------------------------10----------------------------|
|----------------11----10b11r10--11--8---------------------------------|

|--10------------------------------------------------------------------|
|------11----------20-------------16--18---------------------15--------|
|-----------10--------19------------------15---------------------------|
|------------------------17\15-----------------15\13---12--------------|
|----------------------------------------------------------------------|
|----------------------------------------------------------------------|

|--22b23r22--18-----------------------18-------------------------------|
|----------------20-----------16--18-------15b16r15--16--15h16p15------|
|--------------------19--------------------------------------------15--|
|------------------------20--------------------------------------------|
|----------------------------------------------------------------------|
|----------------------------------------------------------------------|

|----------------------------------------------------------------------|
|----------------------------------------------------------------------|
|--17b19r17b19-------(19)r17-------------------------------------------|
|----------------------------------------------------------------------|
|----------------------------------------------------------------------|
|----------------------------------------------------------------------|

Tap to rate this tab
# A B C D E F G H I J K L M N O P Q R S T U V W X Y Z