Song name
# A B C D E F G H I J K L M N O P Q R S T U V W X Y Z

Periphery - Ow My Feelings tab

-------------------------------------------------------------------------------
                             Ow My Feelings - Periphery
-------------------------------------------------------------------------------
Tabbed by: Skenny
Email: sithspidey@gmail.com

Tuning: 7 String drop G#

D#|----5---7--7-3-------------------------------------------------------------|
A#|---------------------3---3/5-----8--8--------------5-5---------------------|
F#|-------------------5---5---------------4-5---------------------------------|
C#|--------------------------------------------7------------------------------|
G#|---------------------------------------------------------------------------|
D#|---------------------------------------------------------------------------|
G#|---------------------------------------------------------------------------|

First tab so sorry if the format looks awkward. It just repeats on like that for a 
while. Rhythm is pretty simple, just listen to the song and you'll be able to figure it out 
pretty quickly.
Tap to rate this tab
 
# A B C D E F G H I J K L M N O P Q R S T U V W X Y Z