Song name
# A B C D E F G H I J K L M N O P Q R S T U V W X Y Z

Perkele - A Song For You tab

Perkele - A Song For You
Album: No Shame
Tuning: Standard E

!! 1=11 !!

Riff 1:
    C#              B               F#                C#
G|----------------------------------1---------------------------------|
D|--1---------------9---------------1-----------------1---------------|
A|--1---------------9---------------9-----------------1---------------|
E|--9---------------7---------------------------------9---------------|


Riff 2:
    C#              B               F#                C#
G|----------------------------------1--1---x-x-x-x--------------------|
D|--1--1---x-x-x-x--9-9---x-x-x-x---1--1---x-x-x-x----1--1---x-x-x-x--|
A|--1--1---x-x-x-x--9-9---x-x-x-x---9--9---x-x-x-x----1--1---x-x-x-x--|
E|--9--9---x-x-x-x--7-7---x-x-x-x---------------------9--9---x-x-x-x--|

Riff 3 (Chorus):
    A               E               B                 C#
G|------------------9-9-9-9-9-9-9-9-----------------------------------|
D|--7-7-7-7-7-7-7-7-9-9-9-9-9-9-9-9-9-9-9-9-9-9-9-9-9-1-1-1-1-1-1-1-1-|
A|--7-7-7-7-7-7-7-7-7-7-7-7-7-7-7-7-9-9-9-9-9-9-9-9-9-1-1-1-1-1-1-1-1-|
E|--5-5-5-5-5-5-5-5-----------------7-7-7-7-7-7-7-7-7-9-9-9-9-9-9-9-9-|

Bass Intro
Riff 1 x1
Riff 2 x7
Riff 3 x4
Riff 2 x4
Riff 3 x4
Riff 2 x6
Riff 3 x4
Riff 2 x4

I'm sure it's correct.
spunk87@freenet.de
Tap to rate this tab
 
# A B C D E F G H I J K L M N O P Q R S T U V W X Y Z