Song name
# A B C D E F G H I J K L M N O P Q R S T U V W X Y Z

Perma - Tripping tab

When I looked online for Perma tabs, I of course
came up empty handed. So after listening to the
song I've come up with what I think is the tabs
Max uses in the song. I say I think because, yet
again, there is no video of him playing the damn
song.

Anyways, I believe in this song he plays with his G
string flatted (a g flat: one half step down for
those that don't know what that means) and plays a
weird configuration of a D flat minor chord and a B
chord. Like so:
          E A D G B e
D flat m: X 4 6 7 5 4

B chord:  X 2 4 5 4 2

But I am going to tab this without the G string
flatted. There is one little riff that will have a
minor change because of this but I will tab it out
both ways. ENJOY!


Verse:
   D flat minor      B
e--------------------------------------|
B-----5-----5----------4-----4-----4---|
G-------6-----6---4------4-----4-------|
D--------------------------------------|
A---4-----4-----4----2-----2-----2-----|
E--------------------------------------|

Chorus:
   Em                F#
e--------------------------------------|
B--------------------------------------|
G--------------------------------------|
D-----2-----2----------4-----4---------|
A-------2-----2---2------4-----4---4---|
E---0-----0-----0----2-----2-----2-----|
                     F#
e-----2-----2-----2--------------------|
B--------------------------------------|
G--------------------------------------|
D-------3-----3--------4-----4---------|
A---4-----4-----4--------4-----4---4---|
E--------------------2-----2-----2-----|
    Em               F#
e--------------------------------------|
B--------------------------------------|
G--------------------------------------|
D-----2-----2----------4-----4---------|
A-------2-----2---2------4-----4---4---|
E---0-----0-----0----2-----2-----2-----|

e--------------------------------------|
B--------------------------------------|
G--------------------------------------|
D-----3---3---3---3---3---3---3---3----|
A---4---4---4---4---4---4---4---4------|
E--------------------------------------|

Verse

Chorus

Play verse as outro. There is a flute in the
background that ends the song to the verse. If you
can hit the notes this is an easy tune that you can
just sing while playing the verse. Or perhaps even
whistle it. :D


That's seriously the whole song. What it sounds like
to my ear anyways. If you have an adjustment that you
think is right feel free to post it. If it sounds good
I'll put it in. Oh and that riff that changes is on the
4-2-3 bit in the chorus. Basically change that 2 on the
e string to an open on the G string. They are both G flats.

http://www.myspace.com/permamusic
Tap to rate this tab
 
# A B C D E F G H I J K L M N O P Q R S T U V W X Y Z