Guitaretab - guitar tabs
Song name
# A B C D E F G H I J K L M N O P Q R S T U V W X Y Z

Permanent Me - Allison tab

BUENO PUES A COMPARACION DE LA OTRA TRANSCRIPCION ESTA ES MAS COMPLETA Y ESTE ALBUM NO
DEDICADO AL HERMANO DE MONIK (BUENO UN POKITO) ESPERO QUE LES AGRADE YA QUE ME COSTO ALGO
TRABAJO

                             1.PERDIDO
                             2.FRÁGIL
                             3.80'S
                             4.AQUÍ
                             5.YA NO TE AMO
                             6.NO MÁS DE TI
                             7.ME CAMBIÓ
                             8.MI DESTINO
                             9. LLAMA POR FAVOR
                            10.ADDISI
~~~~~~~~~~~~~~~~~~~~~~~~~~~~~~~~~~~~~~~~~~~~~~~~~~~~~~~~~~~~~~~~~~~~~~~~~~~~~
                         PERDIDO


 (GTR 1)verso:

C5                G5
anda dime que me quieres
                A5
que por mi te mueres
               G5
eso es lo que quiero escuchar
           C5
no quiero que vayas
          G5
y que me digas
                A5
que de mi te olvidas
               G5
yo no quiero pensar en eso


F5
porque
       G5
me vas a matar
       A5
no voy a morir
       G5
me asesinaras si dices

(GTR 2)
E--------------565--------------|
B--------------565--------------|
G-555-4-4-5-55-----555-4-4------|
D-555-4-4-5-55-----555-4-4------|
A-------------------------------|
E-------------------------------|
P.M. . . . . . . . . . . .
C5
que
        G5          A5
que te olvidas de mi
        G5
que te olvidas de mi


 coro:
C5          G5      F5      A5       G5
me siento perdido cuando no estas conmigo
C5          G5      F5      A5       G5
me siento perdido cuando no estoy contigo
F5            A5       G5
quiero saber que es lo que sientes
F5            A5       G5
puedo sentir que si me kieres

F5   G5
y yo no puedo mas

 (GTR 2)
E--------------------------------|
B--------------------------------|
G--------------------------------|
D-1010-9-1010-9-1010-9-1010-9----|X2
A-1010-9-1010-9-1010-9-1010-9----|
E--8-8-7--8-8-7--8-8-7--8-8-7----|

(GTR 1)
C5,A5,G5, X2

(GTR 2)
E--------------565--------------|
B--------------565--------------|
G-555-4-4-5-55-----555-4-4------|
D-555-4-4-5-55-----555-4-4------|
A-------------------------------|
E-------------------------------|
P.M. . . . . . . . . . . .

C5               G5
anda dime que me kieres
                  A5
que a el ya no lo tienes
             G5
dentro de tu corazon
F5 G5        A5     G5
     de tu corazon uooooo

C5          G5      F5       A5       G5
me siento perdido cuando no estas conmigo
C5          G5     F5        A5       G5
me siento perdido cuando no estoy contigo
F5            A5        G5
quiero saber que es lo que sientes
F5            A5        G5
puedo sentir que si me kieres y yo
F5        G5
 no puedo maaas

E-------33333333--|              |----------------------|
B-----------------|              |----------------------|
G-44-55-----------|              |-1212-1111-9999999999-|
D-----------------|luego con esto|----------------------|
A-----------------|              |----------------------|
E-----------------|              |----------------------|

C5        F5          A5                G5
  tengo  miedo de perderte y aun no te tengo
C5        F5          A5                G5
  tengo miedo de perderte y aun no te tengooo

Fm5,Gm5,X2
C5,F5,Em,F5,X2

C5          G5      F5       A5       G5
me siento perdido cuando no estas conmigo
C5          G5      F5       A5       G5
me siento perdido cuando no estoy contigo
C5          G5      F5       A5       G5
me siento perdido cuando no estas conmigo
C5          G5      F5       A5       G5
me siento perdido cuando no estoy contigo

ALLI SE ACABA EN C5

~~~~~~~~~~~~~~~~~~~~~~~~~~~~~~~~~~~~~~~~~~~~~~~~~~~~~~~~~~~~~~~~~~~~~~~~~~~~~
                   FRÁGIL

INTRO:
Gtr1
E|---------------------------------------------------------------|
B|---------------------------------------------------------------|
G|---------------------------------------------------------------|
D|-------4---------------4---------------4---------------7---4---|
A|-5-5-5---5--5-5----------5---------------5---------------5---4-|
E|-----------------5-5-5------5-5--3-3-3------3-3--5-5-5---------|

Gtr1
E|-------------------------------------------------------|--------------|
B|-------------------------------------------------------|--------------|
G|-------------------------------------------------------|--------------|
D|-------4------------------4-----------------4----------|-9---9---7----|
A|-5-5-5----5--5--5------------5----------------5--------|-9---9---7----|
E|-------------------5-5-5--------5-5--3-3-3--------3-3--|-7---7---5----|
 |                                                       |              |
 |Gtr2                                                   |              |
E|-------------------------------------------------------|--------------|
B|-------------------------------------------------------|--------------|
G|-------------------------------------------------------|-9---9--7-----|
D|-7---7---7---7---7---7---7---7---7---7---7---7---7---7-|-9---9—-7-----|
A|---5---5---5---5---5---5---5---5---5---5---5---5---5---|-7---7--5-----|
E|-------------------------------------------------------|--------------|

  Grt1
E|-------------------|-------------------|
B|-------------------|-------------------|
G|-------------------|-------------------|
D|-------------------|-------------------|
A|-5-4-5-4-5-5-4-5-7-|-5-4-5-4-5-5-4-5-7-|
E|-------------------|-------------------|
 |                   |                   |
 | Grt2              |                   |
E|-------------------|-------------------|
B|-------------------|-------------------|
G|-7-7-7-7-7-7-7-7---|-------------------|
D|-7-7-7-7-7-7-7-7---|-7-7-7-7-7-7-7-7---|
A|-5-5-5-5-5-5-5-5---|-7-7-7-7-7-7-7-7---|
E|-------------------|-5-5-5-5-5-5-5-5---|

  Grt1
E|-------------------|---------------------|
B|-------------------|---------------------|
G|-------------------|---------------------|
D|-------------------|---------------------|
A|-5-4-5-4-5-5-4-5-7-|-10-9-7-10-9-7-10-9--|
E|-------------------|---------------------|
 |                   |                     |
 | Grt2              |                     |
E|-------------------|---------------------|
B|-------------------|---------------------|
G|-------------------|---------------------|
D|-5-5-5-5-5-5-5-5---|--9-9-9--9-7-7--7-7--|
A|-5-5-5-5-5-5-5-5---|--9-9-9--9-7-7--7-7--|
E|-3-3-3-3-3-3-3-3---|--7-7-7--7-5-5--5-5--|

Grt1
E|-------------------|-------------------|-------------------|----------|
B|-------------------|-------------------|-------------------|----------|
G|-------------------|-------------------|-------------------|----------|
D|-------------------|-------------------|-------------------|-9---9-7--|
A|-5-4-5-4-5-5-4-5-7-|-5-4-5-4-5-5-4-5-7-|-5-4-5-4-5-5-4-5-7-|-9---9-7--|
E|-------------------|-------------------|-------------------|-7---7-5--|
 |                   |                   |                   |
 | Grt2              |                   |                   |
E|-------------------|-------------------|-------------------|----------|
B|-------------------|-------------------|-------------------|----------|
G|-7-7-7-7-7---7-7-7-|-------------------|-------------------|----------|
D|-7-7-7-7-7---7-7-7-|-7-7-7-7-7---7-7-7-|-5-5-5-5-5---5-5-5-|-9---9-7--|
A|-5-5-5-5-5---5-5-5-|-7-7-7-7-7---7-7-7-|-5-5-5-5-5---5-5-5-|-9---9-7--|
E|-------------------|-5-5-5-5-5---5-5-5-|-3-3-3-3-3---3-3-3-|-7---7-5--|

D                          A
Me como las uñas todo por tu culpa
G                        B
¿Acaso no sabes que mi alma es tuya?
D                       A
Maldita la hora en que te vi a los ojos
G                      B
Te veo y yo creo que todo es un sueño

uohhhhh oooh noooooooo

Grt1 y Grt2
E|-----------------------|
B|-----------------------|
G|-----------------------|
D|-5---5-5-5---7---7-7-7-|
A|-5---5-5-5---7---7-7-7-|
E|-3---3-3-3---5---5-5-5-|

Dime otra vez que me quieres y que no te iras
E|--------------|--------------|--------------|-------------|
B|--------------|--------------|--------------|-------------|
G|-7-7-7-7-7-7--|--------------|--------------|-------------|
D|-7-7-7-7-7-7--|-7-7-7-7-7-7--|-5-5-5-5-5-5--|-9-9-9-7-7-7-|
A|-5-5-5-5-5-5--|-7-7-7-7-7-7--|-5-5-5-5-5-5--|-9-9-9-7-7-7-|
E|--------------|-5-5-5-5-5-5--|-3-3-3-3-3-3--|-7-7-7-5-5-5-|

Dime otra vez que eres mía y de nadie más
E|--------------|--------------|--------------|-------------|
B|--------------|--------------|--------------|-------------|
G|-7-7-7-7-7-7--|--------------|--------------|-------------|
D|-7-7-7-7-7-7--|-7-7-7-7-7-7--|-5-5-5-5-5-5--|-9-9-9-7-7-7-|
A|-5-5-5-5-5-5--|-7-7-7-7-7-7--|-5-5-5-5-5-5--|-9-9-9-7-7-7-|
E|--------------|-5-5-5-5-5-5--|-3-3-3-3-3-3--|-7-7-7-5-5-5-|

  Grt1
E|-------------------|-------------------|
B|-------------------|-------------------|
G|-------------------|-------------------|
D|-------------------|-------------------|
A|-5-4-5-4-5-5-4-5-7-|-5-4-5-4-5-5-4-5-7-|
E|-------------------|-------------------|
 |                   |                   |
 | Grt2              |                   |
E|-------------------|-------------------|
B|-------------------|-------------------|
G|-7-7-7-7-7-7-7-7---|-------------------|
D|-7-7-7-7-7-7-7-7---|-7-7-7-7-7-7-7-7---|
A|-5-5-5-5-5-5-5-5---|-7-7-7-7-7-7-7-7---|
E|-------------------|-5-5-5-5-5-5-5-5---|

Grt1
E|-------------------|---------------------|
B|-------------------|---------------------|
G|-------------------|---------------------|
D|-------------------|---------------------|
A|-5-4-5-4-5-5-4-5-7-|-10-9-7-10-9-7-10-9--|
E|-------------------|---------------------|
 |                   |                     |
 | Grt2              |                     |
E|-------------------|---------------------|
B|-------------------|---------------------|
G|-7-7-7-7-7-7-7-7---|---------------------|
D|-7-7-7-7-7-7-7-7---|-7-7-7-7-7-7-7-7-----|
A|-5-5-5-5-5-5-5-5---|-7-7-7-7-7-7-7-7-----|
E|-------------------|-5-5-5-5-5-5-5-5-----|

Grt1
E|-------------------|-------------------|
B|-------------------|-------------------|
G|-------------------|-------------------|
D|-------------------|-------------------|
A|-5-4-5-4-5-5-4-5-7-|-5-4-5-4-5-5-4-5-7-|
E|-------------------|-------------------|
 |                   |                   |
 |Grt2               |                   |
E|-------------------|-------------------|
B|-------------------|-------------------|
G|-7-7-7-7-7-7-7-7---|-------------------|
D|-7-7-7-7-7-7-7-7---|-7-7-7-7-7-7-7-7---|
A|-5-5-5-5-5-5-5-5---|-7-7-7-7-7-7-7-7---|
E|-------------------|-5-5-5-5-5-5-5-5---|

Grt1
E|-------------------|---------------------|
B|-------------------|---------------------|
G|-------------------|---------------------|
D|-------------------|---------------------|
A|-5-4-5-4-5-5-4-5-7-|-10-9-7-10-9-7-10-9--|
E|-------------------|---------------------|
 |                   |                     |
 |Grt2               |                     |
E|-------------------|---------------------|
B|-------------------|---------------------|
G|-7-7-7-7-7-7-7-7---|---------------------|
D|-7-7-7-7-7-7-7-7---|-7-7-7-7-7-7-7-7-----|
A|-5-5-5-5-5-5-5-5---|-7-7-7-7-7-7-7-7-----|
E|-------------------|-5-5-5-5-5-5-5-5-----|

D                         A
Me encantan tus ojos que son como el cielo
G                        B
Los veo y no creo que pueda tenerlos
D                          A
Si estoy en el cielo y me voy al infierno
G                   B
Todo por tu cuerpo maldito deseo

uohhhhh oooh noooooo
Grt1 y Grt2
E|------------|-----------|
B|------------|-----------|
G|------------|-----------|
D|-5---5-5-5--|-7---7-7-7-|
A|-5---5-5-5--|-7---7-7-7-|
E|-3---3-3-3--|-5---5-5-5-|

Dime otra vez que me quieres y que no te iras
E|--------------|--------------|--------------|-------------|
B|--------------|--------------|--------------|-------------|
G|-7-7-7-7-7-7--|--------------|--------------|-------------|
D|-7-7-7-7-7-7--|-7-7-7-7-7-7--|-5-5-5-5-5-5--|-9-9-9-7-7-7-|
A|-5-5-5-5-5-5--|-7-7-7-7-7-7--|-5-5-5-5-5-5--|-9-9-9-7-7-7-|
E|--------------|-5-5-5-5-5-5--|-3-3-3-3-3-3--|-7-7-7-5-5-5-|

Dime otra vez que eres mía y de nadie más
E|--------------|--------------|--------------|-------------|
B|--------------|--------------|--------------|-------------|
G|-7-7-7-7-7-7--|--------------|--------------|-------------|
D|-7-7-7-7-7-7--|-7-7-7-7-7-7--|-5-5-5-5-5-5--|-9-9-9-7-7-7-|
A|-5-5-5-5-5-5--|-7-7-7-7-7-7--|-5-5-5-5-5-5--|-9-9-9-7-7-7-|
E|--------------|-5-5-5-5-5-5--|-3-3-3-3-3-3--|-7-7-7-5-5-5-|

Grt1
E|---------------------------------------------------------------|
B|---------------------------------------------------------------|
G|---------------------------------------------------------------|
D|-------4---------------4---------------4---------------7---4---|X2
A|-5-5-5---5--5-5----------5---------------5---------------5---4-|
E|-----------------5-5-5------5-5--3-3-3------3-3--5-5-5---------|
 |
 |Grt2
E|---------------------------------------------------------------|
B|---------------------------------------------------------------|
G|---------------------------------------------------------------|
D|---------------------------------------------------------------|X2
A|--5---5/7-7--------7/2-2--------------2/10-10---9--------------|
E|---------------------------------------------------------------|


Dime otra vez que me quieres y que no te iras
E|--------------|--------------|--------------|-------------|
B|--------------|--------------|--------------|-------------|
G|-7------------|--------------|--------------|-------------|
D|-7------------|-7------------|-5------------|-9-----7-----|
A|-5------------|-7------------|-5------------|-9-----7-----|
E|--------------|-5------------|-3------------|-7-----5-----|

Dime otra vez que eres mía y de nadie más
E|--------------|--------------|--------------|-------------|
B|--------------|--------------|--------------|-------------|
G|-7-7-7-7-7-7--|--------------|--------------|-------------|
D|-7-7-7-7-7-7--|-7-7-7-7-7-7--|-5-5-5-5-5-5--|-9-9-9-7-7-7-|
A|-5-5-5-5-5-5--|-7-7-7-7-7-7--|-5-5-5-5-5-5--|-9-9-9-7-7-7-|
E|--------------|-5-5-5-5-5-5--|-3-3-3-3-3-3--|-7-7-7-5-5-5-|

Dime otra vez que me quieres y que no te iras
E|--------------|--------------|--------------|-------------|
B|--------------|--------------|--------------|-------------|
G|-7-7-7-7-7-7--|--------------|--------------|-------------|
D|-7-7-7-7-7-7--|-7-7-7-7-7-7--|-5-5-5-5-5-5--|-9-9-9-7-7-7-|
A|-5-5-5-5-5-5--|-7-7-7-7-7-7--|-5-5-5-5-5-5--|-9-9-9-7-7-7-|
E|--------------|-5-5-5-5-5-5--|-3-3-3-3-3-3--|-7-7-7-5-5-5-|

Dime otra vez que eres mía y de nadie más
E|--------------|--------------|--------------|-------------|
B|--------------|--------------|--------------|-------------|
G|-7-7-7-7-7-7--|--------------|--------------|-------------|
D|-7-7-7-7-7-7--|-7-7-7-7-7-7--|-5-5-5-5-5-5--|-9-9-9-7-7-7-|
A|-5-5-5-5-5-5--|-7-7-7-7-7-7--|-5-5-5-5-5-5--|-9-9-9-7-7-7-|
E|--------------|-5-5-5-5-5-5--|-3-3-3-3-3-3--|-7-7-7-5-5-5-|

Dime otra vez que me quieres y que no te iras
E|--------------|--------------|--------------|-------------|
B|--------------|--------------|--------------|-------------|
G|-7-7-7-7-7-7--|--------------|--------------|--------7----|
D|-7-7-7-7-7-7--|-7-7-7-7-7-7--|-5-5-5-5-5-5--|-9---7—-7----|
A|-5-5-5-5-5-5--|-7-7-7-7-7-7--|-5-5-5-5-5-5--|-9---7—-5----|
E|--------------|-5-5-5-5-5-5--|-3-3-3-3-3-3--|-7---5-------|

     Acordes

  D   A   G   B
E|---|---|---|---|
B|---|---|---|---|
G|-7-|---|---|---|
D|-7-|-7-|-5-|-9-|
A|-5-|-7-|-5-|-9-|
E|---|-5-|-3-|-7-|

~~~~~~~~~~~~~~~~~~~~~~~~~~~~~~~~~~~~~~~~~~~~~~~~~~~~~~~~~~~~~~~~~~~~~~~~~~~~~
                         80´S
AQUI LA GUITARRA ESTA AFINADA EN BEMOL.......

Intro-verso
   guitarra 1
 Eb|------------------------------------|
 Bb|------------------------------------|
 Gb|------------------------------------|
 Db|-2222-222---------------------------|X2
 Ab|-0000-000-2222-222-4444-444-2222-222|
 Eb|----------0000-000-2222-222-0000-000|
   PM...................................

   guitarra 2
 Eb|--------14--14------------12--12----------10-10---------9--9----|
 Bb|10/12-10--10---10-10/12-10--10---10-9/10-9--9---9-9/10-9-10--10-|
 Gb|----------------------------------------------------------------|
 Db|----------------------------------------------------------------|X3
 Ab|----------------------------------------------------------------|
 Eb|----------------------------------------------------------------|

 pre-coro
   guitarra 1
 Eb|-----------------------------------|
 Bb|-----------------------------------|
 Gb|---2---2--2---7---7--7-22222-4-6-7-|
 Db|--2---2--2---7---7--7--22222-4-6-7-|
 Ab|-0---0------5---5------00000-2-4-5-|
 Eb|-----------------------------------|

   guitarra 2
 Eb|---------14--14------------12--12----------10-10---------9--9----|
 Bb|-10/12-10--10---10-10/12-10--10---10-9/10-9--9---9-9/10-9-10--10-|
 Gb|-----------------------------------------------------------------|
 Db|-----------------------------------------------------------------|
 Ab|-----------------------------------------------------------------|
 Eb|-----------------------------------------------------------------|

 coro
   guitarra 1
 Eb|-----------------|  |------------------|
 Bb|-----------------|  |------------------|
 Gb|-2222------------|  |-22222222-4444444-|
 Db|-2222-22-4444-22-|X4|-22222222-4444444-|
 Ab|-0000-22-4444-22-|  |-00000000-2222222-|
 Eb|------00-2222-00-|  |------------------|

   guitarra 2
 Eb|---------14--14------------12--12----------10-10---------9--9----|
 Bb|-10/12-10--10---10-10/12-10--10---10-9/10-9--9---9-9/10---10--10-|
 Gb|-----------------------------------------------------------------|
 Db|-----------------------------------------------------------------|
 Ab|-----------------------------------------------------------------|
 Eb|-----------------------------------------------------------------|x2

post-coro
   guitarra 1
 Eb|-----------|
 Bb|-----------|
 Gb|-22-----22-|
 Db|-22-----22-|
 Ab|-00-----00-|
 Eb|-----------|

   guitarra 2
 Eb|---------14--14------------12--12----------10-10---------9--9----|
 Bb|-10/12-10--10---10-10/12-10--10---10-9/10-9--9---9-9/10-9-10--10-|
 Gb|-----------------------------------------------------------------|
 Db|-----------------------------------------------------------------|
 Ab|-----------------------------------------------------------------|
 Eb|-----------------------------------------------------------------|

 verso
   guitarra 1
 Eb|------------------------------------|
 Bb|------------------------------------|
 Gb|------------------------------------|
 Db|-2222-222---------------------------|X2
 Ab|-0000-000-2222-222-4444-444-2222-222|
 Eb|----------0000-000-2222-222-0000-000|
   PM...................................

   guitarra 2
 Eb|---------14--14------------12--12----------10-10---------9--9----|
 Bb|-10/12-10--10---10-10/12-10--10---10-9/10-9--9---9-9/10-9-10--10-|
 Gb|-----------------------------------------------------------------|
 Db|-----------------------------------------------------------------|
 Ab|-----------------------------------------------------------------|
 Eb|-----------------------------------------------------------------|x3

 pre-coro
   guitarra 1
 Eb|-----------------------------------|
 Bb|-----------------------------------|
 Gb|---2---2--2---7---7--7-22222-4-6-7-|
 Db|--2---2--2---7---7--7--22222-4-6-7-|
 Ab|-0---0------5---5------00000-2-4-5-|
 Eb|-----------------------------------|

   guitarra 2
 Eb|---------14--14------------12--12----------10-10---------9--9----|
 Bb|-10/12-10--10---10-10/12-10--10---10-9/10-9--9---9-9/10-9-10--10-|
 Gb|-----------------------------------------------------------------|
 Db|-----------------------------------------------------------------|
 Ab|-----------------------------------------------------------------|
 Eb|-----------------------------------------------------------------|

 coro
  guitarra 1
 Eb|-----------------|  |------------------|
 Bb|-----------------|  |------------------|
 Gb|-2222------------|  |-22222222-4444444-|
 Db|-2222-22-4444-22-|X4|-22222222-4444444-|
 Ab|-0000-22-4444-22-|  |-00000000-2222222-|
 Eb|------00-2222-00-|  |------------------|

   guitarra 2
 Eb|---------14--14------------12--12----------10-10---------9--9----|
 Bb|-10/12-10--10---10-10/12-10--10---10-9/10-9--9---9-9/10-9-10--10-|
 Gb|-----------------------------------------------------------------|
 Db|-----------------------------------------------------------------|
 Ab|-----------------------------------------------------------------|
 Eb|-----------------------------------------------------------------|x2

post-coro2
   guitarra 1
 Eb|----|
 Bb|----|
 Gb|-22-|
 Db|-22-|
 Ab|-00-|
 Eb|----|

   guitarra 2
 Eb|---------14--14------------12--12----------10-10---------9--9----|
 Bb|-10/12-10--10---10-10/12-10--10---10-9/10-9--9---9-9/10-9-10--10-|
 Gb|-----------------------------------------------------------------|
 Db|-----------------------------------------------------------------|
 Ab|-----------------------------------------------------------------|
 Eb|-----------------------------------------------------------------|

 coro x2
guitarra 1
 Eb|-----------------|  |------------------|
 Bb|-----------------|  |------------------|
 Gb|-2222------------|  |-22222222-4444444-|
 Db|-2222-22-4444-22-|X4|-22222222-4444444-|
 Ab|-0000-22-4444-22-|  |-00000000-2222222-|
 Eb|------00-2222-00-|  |------------------|

   guitarra 2
 Eb|---------14--14------------12--12----------10-10---------9--9----|
 Bb|-10/12-10--10---10-10/12-10--10---10-9/10-9--9---9-9/10-9-10--10-|
 Gb|-----------------------------------------------------------------|
 Db|-----------------------------------------------------------------|
 Ab|-----------------------------------------------------------------|
 Eb|-----------------------------------------------------------------|x2

post-coro2
   guitarra 1
 Eb|----|
 Bb|----|
 Gb|-22-|
 Db|-22-|
 Ab|-00-|
 Eb|----|

   guitarra 2
 Eb|---------10--10------------9--9----------10-10---------9--9----|
 Bb|-10/12-10--10---10-10/12-10-10--10-9/10-9--9---9-9/10-9-10--10-|
 Gb|---------------------------------------------------------------|
 Db|---------------------------------------------------------------|
 Ab|---------------------------------------------------------------|
 Eb|---------------------------------------------------------------|

~~~~~~~~~~~~~~~~~~~~~~~~~~~~~~~~~~~~~~~~~~~~~~~~~~~~~~~~~~~~~~~~~~~~~~~~~~~~~
                         AQUÍ

 Intro:
Am#  Dm# Gm Fm
E|------------13-------------13----------------|
B|-------11-------------11------------11-------|
G|---14-----------14------------14-------------|x2
D|---------------------------------------------|
A|---------------------------------------------|
E|---------------------------------------------|
luego entra  la bateria...

   Am#  Dm# Gm Fm
E|------------13-------------13----------------|
B|-------11-------------11------------11-------|
G|---14-----------14------------14-------------|x7
D|---------------------------------------------|
A|---------------------------------------------|
E|---------------------------------------------|

E|-------13----11------------------------|
B|-----------------11-------15-----------|
G|---------------------------------------|
D|---------------------------------------|
A|---------------------------------------|
E|---------------------------------------|
Intro:
Am#  Dm# Gm Fm

Am#
Estas aqui parada sin decirme
         Gm
que estas por mi
                                Fm
y quieres que lo nuestro nunca se acabe
          Dm#  Fm
pero no lo dices
           Gm
y ahora estoy aqui acostado
                        Am#
y con mis manos aferrado a ti

pidiendole al destino que
    Dm#                      Fm
nunca me vaya a separar de tiiiii...

Am#
por que te amo
                          Gm
no sabes todo lo que yo sufri por ti
                         Dm#
noches en vela desde que te vi
                Fm
y ahora estas en mi
Dm#               Fm                 Am#    Gm,     Dm#   Fm
y yo pensando en que te extraño uooouooo  uoouoo nooouoo nooouoo
riff 1
E|-------------------------------------------|
B|------------7---6-------6—6----7---6-------|
G|----9---7-----------------------------9----|
D|-------------------------------------------|
A|-------------------------------------------|
E|-------------------------------------------|

Am#
yo se que hiciste tantas cosas
         Gm
cuando estaba el
                             Fm
y no supo apreciarte pues no supo ser
           Dm#  Fm
lo que tu quieres

esto va junto con la parte que viene…

riff 2
E|-----------------------------------|
B|-------------11---10---------15----|
G|---10---9--------------------------|
D|-----------------------------------|
A|-----------------------------------|
E|-----------------------------------|

Riff 4
E|---------------------|
B|--------11---10------|
G|---10----------------|
D|---------------------|
A|---------------------|
E|---------------------|
             Gm
y ahora estoy aqui acostado y con mis manos
      Am#
aferrado a ti
                           Dm#
pidiendole al destino que nunca me vaya
               Fm
a separar de tiiiii...

Am#
por que te amo
                          Gm
no sabes todo lo que yo sufri por ti
                           Dm#
noches en vela desde que te vi
                  Fm
y ahora estas en miii...

PUENTE:
Dm# Fm Gm Dm# Fm Gm Dm#

           Cm
por que te amo
                                  Fm
no sabes todo lo que yo sufri por ti
                            Am
noches en vela desde que te vi
                    Gm    Cm
y ahora estas en miiiiiiiiiii...

e|---------------15-----------15--------------|
B|--------13-------------13-----------13------|
G|----16-------------16-----------16----------|
D|--------------------------------------------|
A|--------------------------------------------|
E|--------------------------------------------|


 Fm
te amo
 Am
te amo
 Gm    Cm
te amo


~~~~~~~~~~~~~~~~~~~~~~~~~~~~~~~~~~~~~~~~~~~~~~~~~~~~~~~~~~~~~~~~~~~~~~~~~~~~~
~                    YA NO TE AMO

INTRO:
    D#    A#            C      G#
e]-----|-------------|------|-------------|
B]-----|-------------|------|-------------|
G]--x--|-------------|------|-------------|
D]--8--|--8----------|--10--|--6----------|X2
A]--6--|--8--5/6/5---|--10--|--6--5/6/5---|
E]-----|--6-------6--|---8--|--4-------6--|

 D#5      A#5     C5       G#5           D#5      A#5  C5  G#5
Ayer te vi y recorde lo que tu y yo fuimos una vez
 D#5      A#5     C5       G#5           D#5      A#5
y me dolio porque se que ya no voy a encontrar alguien
   C5      G#5           C5              A#5             G#5
a quien querer igual que tu... el tiempo pasooo, un año pasooo uho!
     A#5
tu no estas aqui.
[ Tab from: http://www.guitaretab.com/p/permanent-me/153727.html ]
NOTA:
En el "CORO" la 2da lira hace otros acordes, pongan atencion a la
rola para que puedan escuchar los cambios, aqui los pongo:
( D#5-D5-F5 )... Estos son los acordes, solo agarren el ritmo
                 del acompañamiento ya que va mas RAPIDO.

G-x-x-x-x--x-x-x-x-x-x--x-x-x-x-x-x--x-x-x-x-----------|
D-8-7-8-10-8-7-8-7-8-10-8-7-8-7-8-10-8-8-8-8--x-x-x-x--|
A-6-5-6-8--6-5-6-5-6-8--6-5-6-5-6-8--6-6-6-6--6-6-6-6--|
E---------------------------------------------4-4-4-4--|

CORO:
Y ahora yo...
 D#5     A#5   C5    G#5
Ya no te amo solo te extraño
 D#5      A#5    C5        G#5
no soy el mismo que dejaste destrozado
      D#5     A#5   C5     G#5
ahora ya no te amo solo te extraño
 D#5      A#5    C5        G#5
no soy el mismo que dejaste hace un año uho!.

G-------------------------------|
D-------------------------------|
A-6-5-6-5-6-5-6-5-6-5-6-5-6/8-6-|
E-------------------------------|

 D#5      A#5          C5         G#5         D#5     A#5   C5   G#5
Que tonto fui al ir por ti y encontrarte abrazada de el,
 D#5     A#5         C5         G#5              D#5       A#5
no pude mas iba a llorar, pero eso fue ya hace un tiempo y ya
  C5         G#5      C5              A#5             G#5
todo paso hay algo mejor... el tiempo pasooo, un año pasooo uho!
     A#5
tu no estas aqui.

  CORO...X1

En esta parte entra el "SOLO" (Las 2 liras hacen el RIFF 1)
y en la parte de arriba les pongo el akompañamiento del bajo.

RIFF 1
G-------------------------------|
D-------------------------------|
A-6-5-6-5-6-5-6-5-6-5-6-5-6/8-6-|
E-------------------------------|
   D#                              G#
G--------------------------------------------------------------|
D--------------------------------------------------------------|
A-6-5-6-5-6-5-6-5-6-5-6-5-6/8-6--6-5-6-5-6-5-6-5-6-5-6-5-6/8-6-|
E--------------------------------------------------------------|
   C                               A#
G--------------------------------------------------------------|
D--------------------------------------------------------------|
A-6-5-6-5-6-5-6-5-6-5-6-5-6/8-6--6-5-6-5-6-5-6-5-6-5-6-5-6/8-6-|
E--------------------------------------------------------------|

En esta parte la 2da lira se sale y hace lo siguiente:
mientras la primera guitarra continua con el RIFF 1.
  D#                A#                C                 A#
e--------------------------------------------------------------------|
B-8-6-8-6-8-6-8-9--8-6-8-6-8-6-8-9--8-6-8-6-8-6-8-9--8-6-8-6-8-6-8-9-|
G--8-8-8-8-8-8------8-8-8-8-8-8------8-8-8-8-8-8------8-8-8-8-8-8----|

Y en esta parte las 2 liras hacen esto:
   G#            A#             C                       D#
e-------------------------------------------------------------------------|
B-8-8-8-8-8-8-8/9-9-9-9-9-9-9/11-11-11-11-11-11-11-11/13-13-13/11-11-11---|
G-------------------------------------------------------------0-----------|
                        G#-A#
e----------------------------|
B-9/13-13-13/11-11-11-9/8/9--|
G----------------------------|

  CORO...X2

G-------------------------------|
D-------------------------------|
A-6-5-6-5-6-5-6-5-6-5-6-5-6/8-6-|
E-------------------------------|  ... y se acaba

~~~~~~~~~~~~~~~~~~~~~~~~~~~~~~~~~~~~~~~~~~~~~~~~~~~~~~~~~~~~~~~~~~~~~~~~~~~~~
                         NO MAS DE TI
ACORDES:> F# D# G# Bm

Guitarra 1
00:00
e|--------------------------------------------------------------------|
B|--------7-----7-6-------7-----7-6-------7-----7-6-------7-----7-6---|
G|------6---6-------6---6---6-------6---6---6-------6---6---6-------6-|
D|----4-------4-------4-------4-------4-------4-------4-------4-------|x4
A|--------------------------------------------------------------------|
E|--------------------------------------------------------------------|

Guitarra 2
00:16
e|--------------------------------------------------------------------|
B|--------------------------------------------------------------------|
G|--------------------------------------------------------------------|
D|------------------------------------4-4-4-4-4-4-4-4-4-4-4-4-4-4-4-4-|x2
A|----4-4-4-4-4-4-4-4-4-4-4-4-4-4-4-4-2-2-2-2-2-2-2-2-2-2-2-2-2-2-2-2-|
E|----2-2-2-2-2-2-2-2-2-2-2-2-2-2-2-2---------------------------------|

              Amor como estas soy yo solo hablaba para oir tu voz
              Yo se te falle otra vez es tu trabajo y tengo que entender
                                                    PM

Guitarra 1 - 2
00:32
e|-------------------------------------------------|
B|-------------------------------------------------|
G|-------------------------------------------------|
D|-----------------4-4-4-4-4-4-4-4-----------------|
A|-4-4-4-4-4-4-4-4-2-2-2-2-2-2-2-2-4-4-4-4-4-4-4-4-|
E|-2-2-2-2-2-2-2-2-----------------2-2-2-2-2-2-2-2-|
 PM. Precoro
         No quiero saber si al final me cambiaste
         No quiero saber si es que a el lo besaste
              No me lastimes mas y dejame


Guitarra 1 - 2
00:32
e|-------------------------------------------------|
B|-------------------------------------------------|
G|-------------------------------------------------|
D|-8-8-8-8-8-8-8-8-----------------4-4-4-4-4-4-4-4-|
A|-6-6-6-6-6-6-6-6-6-6-6-6-6-6-6-6-2-2-2-2-2-2-2-2-|
E|-----------------4-4-4-4-4-4-4-4-----------------|
 PM
 Coro

              Las cosas que no me dijiste
                 Por eso me voy
              Las cosas que nunca dijiste
                 Por eso me voy


Guitarra 1 - 2
coro
00:44
e|--------------------------------|
B|--------------------------------|
G|--------------------------------|
D|-----------------4-4-4-4-4-4-4-4|x4
A|-4-4-4-4-4-4-4-4-2-2-2-2-2-2-2-2|
E|-2-2-2-2-2-2-2-2----------------|

la tercera hace esto
e|-----9--|x3
B|-6/7----|
G|--------|
D|--------|
A|--------|
E|--------|


Guitarra 1
00:59
e|----------------------------------|
B|--------7-----7-6-------7-----7-6-|
G|------6---6-------6---6---6-------|
D|----4-------4-------4-------4-----|
A|----------------------------------|
E|----------------------------------|

Guitarra 1
01:03
e|--------------------------------------------------------------------|
B|--------7-----7-6-------7-----7-6-------7-----7-6-------7-----7-6---|
G|------6---6-------6---6---6-------6---6---6-------6---6---6-------6-|
D|----4-------4-------4-------4-------4-------4-------4-------4-------|x2
A|--------------------------------------------------------------------|
E|--------------------------------------------------------------------|

Guitarra 2
01:03
e|--------------------------------------------------------------------|
B|--------------------------------------------------------------------|
G|--------------------------------------------------------------------|
D|------------------------------------4-4-4-4-4-4-4-4-4-4-4-4-4-4-4-4-|x2
A|----4-4-4-4-4-4-4-4-4-4-4-4-4-4-4-4-2-2-2-2-2-2-2-2-2-2-2-2-2-2-2-2-|
E|----2-2-2-2-2-2-2-2-2-2-2-2-2-2-2-2---------------------------------|

              Amor como estas soy yo solo quiero que sepas que me voy
              Ya empaque mis maletas y unas fotos de tu y yo
                                                   PM

Guitarra 1 - 2
01:19
e|-------------------------------------------------|
B|-------------------------------------------------|
G|-------------------------------------------------|
D|-----------------4-4-4-4-4-4-4-4-----------------|
A|-4-4-4-4-4-4-4-4-2-2-2-2-2-2-2-2-4-4-4-4-4-4-4-4-|
E|-2-2-2-2-2-2-2-2-----------------2-2-2-2-2-2-2-2-|
 PM
          No quiero saber si al final me cambiaste
          No quiero saber si es que a el lo besaste
              No me lastimes mas y dejame


Guitarra 1 - 2
01:19
e|-------------------------------------------------|
B|-------------------------------------------------|
G|-------------------------------------------------|
D|-8-8-8-8-8-8-8-8-----------------4-4-4-4-4-4-4-4-|
A|-6-6-6-6-6-6-6-6-6-6-6-6-6-6-6-6-2-2-2-2-2-2-2-2-|
E|-----------------4-4-4-4-4-4-4-4-----------------|
 PM
              Las cosas que no me dijiste
                 Por eso me voy
              Las cosas que nunca dijiste
                 Por eso me voy

Guitarra 1 - 2
coro
01:30
e|--------------------------------|
B|--------------------------------|
G|--------------------------------|
D|-----------------4-4-4-4-4-4-4-4|x4
A|-4-4-4-4-4-4-4-4-2-2-2-2-2-2-2-2|
E|-2-2-2-2-2-2-2-2----------------|


Guitarra 1 - 2
01:47
e|-------------------------------|
B|-------------------------------|
G|-3-3-4-4-8-8-------------------|
D|-3-3-4-4-8-8-3-3-3-4-4-4-------|x3
A|-1-1-2-2-6-6-3-3-3-4-4-4-------|
E|-------------1-1-1-2-2-2-------|

e|-------------------------------|
B|-------------------------------|
G|-3-3-4-4-6-6---11111111--------|
D|-3-3-4-4-6-6---11111111--------|
A|-1-1-2-2-4-4---9-9-9-9---------|
E|-------------------------------|

CORO.............PM
Guitarra 1
e|--------------------------------|
B|--------------------------------|
G|--------------------------------|
D|-----------------4-4-4-4-4-4-4-4|x2
A|-4-4-4-4-4-4-4-4-2-2-2-2-2-2-2-2|
E|-2-2-2-2-2-2-2-2----------------|

Guitarra 2
e|-----9--|x3
B|-6/7----|
G|--------|
D|--------|
A|--------|
E|--------|

Fin

~~~~~~~~~~~~~~~~~~~~~~~~~~~~~~~~~~~~~~~~~~~~~~~~~~~~~~~~~~~~~~~~~~~~~~~~~~~~~
            ME CAMBIO
INTRO:
E|-----------------------------------------------------|
B|-----------------------------------------------------|
G|----------4-------5-------9--------7-----------------|
D|---5------4x6-----5x6-----9x4------7x4---------------| X2
A|---5x6----2-------3-------7--------5-----------------|
E|---3-------------------------------------------------|

Guitarra  1
E|-----------------------------------------------------|
B|-----------------------------------------------------|
G|----------4-------5-------9--------7-----------5-----|
D|---5------2-------5-------9--------7-----------5-----|
A|---5------2-------3-------7--------5-----------3-----|
E|---3-------------------------------------------------|

 Guitarra   2
E|-----------------------------------------------------|
B|-----------------------------------------------------|
G|-----------------------------------------------------|
D|---------2x6--------3x6--------7x6-------5x6---------|
A|-----------------------------------------------------|
E|---3x6-----------------------------------------------|
PM  ..........................................

VERSO:
Los Rasgeos son rapidos
Pues me cambio  todo por un auto nuevo dinero y lujos que.....

E|-----------------------------------------------------|
B|-----------------------------------------------------|
G|------------------5-------9--------7-----------------|
D|---5--------------5x6-----9x6------7x6---------------| X2
A|---5x6------------3-------7--------5-----------------|
E|---3-------------------------------------------------|
PM: .........................................

CORO:
Guitarra 1 sin PM

lo tirooo...... oooooo uoooooooo me cambio........
E|-----------------------------------------------------|
B|-----------------------------------------------------|
G|------------------5-------9--------7-----------------|
D|---5--------------5x6-----9x6------7x6---------------| X2
A|---5x6------------3-------7--------5-----------------|
E|---3-------------------------------------------------|

Guitarra 2

E|-----------------------------------------------------|
B|-----------------------------------------------------|
G|-----------------------------------------------------|
D|-----5-4-0------5-4-0--------5-4-0---------5--4------| X1
A|-----------------------------------------------------|
E|-----------------------------------------------------|

PUENTE:


 Guitarra 1
E|-----------------------------------------------------|
B|-----------------------------------------------------|
G|------------------5-------9--------7-----------------|
D|---5--------------5x6-----9x6------7x6---------------| X2
A|---5x6------------3-------7--------5-----------------|
E|---3-------------------------------------------------|

 Guitarra 2
E|-----------------------------------------------------|
B|-----------------------------------------------------|
G|-----------------------------------------------------|
D|---4/5--5-5-5-5-5-5-5|x3-------5--4--0---------------|
A|-----------------------------------------------------|
E|-----------------------------------------------------|
Aqui entra el bajo...................

 Guitarra 1 y 2 Verso

Ayer la vi estaba sobre su auto nuevo, mirando al cielo.......

E|-----------------------------------------------------|
B|-----------------------------------------------------|
G|------------------5-------9--------7-----------------|
D|---5--------------5x6-----9x6------7x6---------------| X1
A|---5x6------------3-------7--------5-----------------|
E|---3-------------------------------------------------|
PM: .........................................

Aqui va otra ves el coro......
   y luego SIgue con esto.....

 Guitarra 1, va lento

E|-----------------------------------------------------|
B|-----------------------------------------------------|
G|---------------5-----5-9----------9----7-------------|
D|---5---------5-5-----5-9----------9----7-------------|
A|---5---------5-3-----3-7----------7----5-------------|
E|---3---------3---------------------------------------|

Guitarra 2
E|-----------------------------------------------------|
B|-----------------------------------------------------|
G|-----------------------------------------------------|
D|---4/5--5-5-5-5-5-5-5|x3-------5--4--0---------------|
A|-----------------------------------------------------|
E|-----------------------------------------------------|

 Aqui va lento

Guitarra 1
E|-----------------------------------------------------|
B|-----------------------------------------------------|
G|-----------------------------------------------------|
D|-----5---5------10---10-----14----14-------12----12--| X4
A|----5--5------10--10----------14----14-------12----12|
E|---3----3----8------8-----12----12-------10----10----|

Guitarra  2
E|-----------------------------------------------------|
B|--------8-7------8-7--------8-7--0------8-7---8/10---|
G|------------7---------5------------------------------|
D|-----------------------------------------------------| X2
A|-----------------------------------------------------|
E|-----------------------------------------------------|

Guitarra 1 y 2
E|-----------------------------------------------------|
B|-----------------------------------------------------|
G|------------------5-------9--------7-----------------|
D|---5--------------5x6-----9x6------7x6---------------| X2
A|---5x6------------3-------7--------5-----------------|
E|---3-------------------------------------------------|

Se repite el coro 2 veces
Outro
Guitarra 1

E|-----------------------------------------------------|
B|-----------------------------------------------------|
G|---------------5-----5-9----------9----7-------------|
D|---5---------5-5-----5-9----------9----7-------------|
A|---5---------5-3-----3-7----------7----5-------------|
E|---3---------3---------------------------------------|

Guitarra 2
E|-----------------------------------------------------|
B|-----------------------------------------------------|
G|-----------------------------------------------------|
D|-----5-4-0------5-4-0--------5-4-0---------5--4------| X1
A|-----------------------------------------------------|
E|-----------------------------------------------------|

~~~~~~~~~~~~~~~~~~~~~~~~~~~~~~~~~~~~~~~~~~~~~~~~~~~~~~~~~~~~~~~~~~~~~~~~~~~~~
                MI DESTINO

ACORDES:> D#m B F# C#

AFINACION BEMOL
    F#*
eI--2--I
BI--2--I
GI--3--I
DI--4--I
AI--4--I
EI--1--I

     D#m        B           F#        F#*
eI--------------------------------------------------|I
BI--------------------------------------------------|I
GI--------------------------------------------------|I
DI---1---3/4---------3/4--------3/4-------3/4-------|I
AI--------------2-----------------------------------|I
EI--------------------------2---------1-------------|I

D#m           B                       F#
ya no soy la misma alma que tuviste junto a ti
   F#*                       B
el esclavo amoroso en que me converti
D#m                 F#
todo lo que fui lo hice por ti
C#
lo hice por ti

D#m
ya no siento que estoi vivo
B
tu controlas mi camino
F#                           F#*
y tu recuerdo esta sentado aqui conmigo
D#m
ya no se si tengo ganas
B
solo se que estoy de malas
F#                         F#*
tu recuerdo esta sentado aqui conmigo..

   D#m        B                           F#
ya no quieroo seguir sintiendo este dolor dentro de mi
    F#*                        D#m
recordar que casi muero cuando te perdi
   B                           F#
mi alma esta sufriendo y es por ti
F#*
y es por ti
    B         D#m
y ahora no .. no queda mas no queda mas
F#                   C#
que un simple recuerdo

D#m
ya no siento que estoi vivo
B
tu controlas mi camino
F#                           F#*
y tu recuerdo esta sentado aqui conmigo
D#m
ya no se si tengo ganas
B
solo se que estoy de malas
F#                         F#*
tu recuerdo esta sentado aqui conmigo..

   D#m              B               F#             F#*
eI--2--2--2--2--2---2--2--2--2--2---2--2--2--2--2---1/2-1/2-1/2-1/2-----|I
BI---4--4--4--4--4---4--4--4--4--4---2--2--2--2--2----------------------|I
GI----3--3--3--3--3---4--4--4--4--4---3--3--3--3--3---------------------|I
DI--1-------------------------------------------------------------------|I
AI------------------2---------------------------------------------------|I
EI----------------------------------2---------------1-------------------|I

 D#m               B
y ahora estoy pensando en ti
    F#              F#*
pensando en que no estas aqui

ya no siento que estoi vivo
B
tu controlas mi camino
F#                           F#*
y tu recuerdo esta sentado aqui conmigo
D#m
ya no se si tengo ganas
B
solo se que estoy de malas
F#                         F#*
tu recuerdo esta sentado aqui conmigo..

D#m    B             F#              F#*
     y ahora estoy pensando en ti!!...
D#m  B             F#              F#*   D#m (aqui termina)
     ahora estoy pensando en ti.

~~~~~~~~~~~~~~~~~~~~~~~~~~~~~~~~~~~~~~~~~~~~~~~~~~~~~~~~~~~~~~~~~~~~~~~~~~~~~
                  LLAMA PORFAVOR
intro: D  Bm  F#m  G  A

D             Bm
hoy es viernes y
                       F#m
no me hablas desde el martes
                     E
ke es lo ke esta pasando

D           Bm
no me sento bien
                   F#m
no contestas mis mensajes
                     E
no entiendo ni un carajo


D                       A
no puedo dejar de pensar en ti
               D                     Bm
no te saco de mi cabeza mi cuarto mi debil trabajo
   G       A
llama porfavor  yeaaaaaaaa


D        Bm
sabado y tu
              F#m
no te has preocupado
                  A
 no me has localizado


D                       A
no puedo dejar de pensar en ti
               D                     Bm
no te saco de mi cabeza mi cuarto mi debil trabajo
   G       A
llama porfavor


D                       A
no puedo dejar de pensar en ti
               D                     Bm
no te saco de mi cabeza mi cuarto mi debil trabajo
   G       A
llama porfavor
 D   Bm     G     G    A          G        D
UOOO UOOO UOOOO LLAMA POR FAVOR  LLAMA PORFAVOR

~~~~~~~~~~~~~~~~~~~~~~~~~~~~~~~~~~~~~~~~~~~~~~~~~~~~~~~~~~~~~~~~~~~~~~~~~~~~~                   ADDISI

   Todo El Tiempo Voy cambiando
    Sin saber Que Esta Pasando
1|---------------------------------------|
2|---------------------------------------|
3|--------------444444--666666--222222---| (Bajo)
4|--222222-------------------------------|
  Pero Sigo Avanzando Viviendo Sin....
1|---------------------------------------|
2|---------------------------------------|
3|--------------444444--666666--2~-------|
4|--222222-------------------------------|
   Ti
1|--------------------------------------|
2|--------------------------------------|
3|--------------------------------------|
4|--444-4444-4444-44444-----------------|  (Guitarra)
5|--444-4444-4444-44444-----------------|
6|--222-2222-2222-22222-----------------|


1|-----------------------------------------------------------|
2|-----------------------------------------------------------|(x2)
3|------66666--888/101010--88888-101010/-111111---44-4-44-4-4|
4|44444-66666--xxx--x-x-x--88888---x--x--x-x-x-x--44-4-44-4-4|
5|44444-44444--666/-8-8-8--66666-8-8-8/--9--9-9---22-2-22-2-2|
6|22222------------------------------------------------------|
PM                                                     **   ** **
Verso

 Yo Ya Estoy Pinche Cansado
    De Andarte Esperando
1|---------------------------------------|
2|---------------------------------------|
3|--------------444444--666666--222222---| (Bajo)
4|--222222-------------------------------|

   Ahora Tengo Muchas Ganas
    De ir Por Ti
1|----------------------------------------|
2|----------------------------------------|
3|---------------444444--666666--22-22----| (Bajo )
4|--222222--------------------------------|

1|--------------------------------|
2|--------------------------------|
3|-----------------------44-44----|
4|-----------------------44-44----| (Guitarra)"escuchen la rola"
5|-----------------------22-22----|
6|--------------------------------|
PM                          ** **
   Tengo Ganas De Abrazarte
    Y Decirte Que Te Quiero
1|----------------------------------------|
2|----------------------------------------|
3|---------------666666--888888--444444---|
4|--444444--666666--888888--444444--------|
5|--444444--444444--666666--222222--------|
6|--222222--------------------------------|
   Y Que Estoy Hasta La Madre
    De No Estar Contigo
1|------------------------------------------|
2|------------------------------------------|
3|---------------666666--888888--444-666----|
4|--444444--666666--888888--444-666---------| (escuchen la rola)
5|--444444--444444--666666--222-444---------|
6|--222222----------------------------------|
Coro
  No Me Importa Lo Que Digan Tus Amigas
  No Soy Malo Ni Muy Bueno Pero Quiero Estar Contigo
  Sembrando Un Mundo Nuevo Donde Tenga Un Buen De Amigos
  Quedate A Mi Lado Te Lo Pido Por Favor
1|-----------------------------------------------------------------|
2|-----------------------------------------------------------------|
3|-------------66666--888/101010--88888--101010/111111-44444-666666|
4|444444--66666--xxx--x--x--x----88888--x--x--x-x--x-x-44444-666666|
5|444444--44444--666/-8-8-8---66666----8-8--8/--9-9--9-22222-444444|
6|222222-----------------------------------------------------------|

1|-----------------------------------------------------------------------|
2|-----------------------------------------------------------------------|
3|-----------------------------------------------------------------------|
4|--4--4--44--44---------------------------------------------------------|
5|--4--4--44--44---------------------------------------------------------|
6|--2--2--22--22---------------------------------------------------------|
1|-----------------------------------------------------------------------|
2|-----------------------------------------------------------------------|
3|----------66666--888/101010--88888--101010/111111--44-4-44-4-4---------|
4|44444444--66666---xxx--x--x--x----88888---x--x--x-x--x--x-44-4-44-4-4--|
5|44444444--44444---666/-8-8-8----66666----8--8--8/-9--9-9--22-2-22-2-2--|
6|22222222---------------------------------------------------------------|
PM                                                     **   **   **

1|----------------------------------------------------------------------|
2|----------------------------------------------------------------------|
3|6666-6666-6666666--6-8-10-11--88-10-12-13--44-6-8-10------------------|
4|6666-6666-6666666--6-8-10-11--88-10-12-13--44-6-8-10--4444-4444-------|
5|4444-4444-4444444--4-6--8--9--66--8--10-11--22-4-6-8--4444-4444-------|
6|-------------------------------------------------------2222-222-------|


1|----------------------------------------------------|
2|----------------------------------------------------|
3|--6-8-10-11--88-10-12-13--44-6-8-10-----------------|
4|--6-8-10-11--88-10-12-13--44-6-8-10-----4444-4444---|(X2)
5|--4-6--8--9----66--8-10-11--22-4-6--8---4444-4444---|
6|----------------------------------------2222-2222---|

1|--------------------------------------|
2|--------------------------------------|
3|--8/9999--8/9999--8/9999--10~---------|
4|--x-xxxx----x--xxxx---x-xxxx-----x~---|
5|--6/7777--6/7777--6/7777---8~---------|
6|--------------------------------------|

Coro
   No Me Importa Lo Que Digan Tus Amigas
   No Soy Malo Ni Muy Bueno Pero Quiero Estar Contigo
   Sembrando Un Mundo Nuevo Donde Tenga Un Buen De Amigos
   Quedate A Mi Lado Te Lo Pido Por Favor
1|------------------------------------------------------------------|
2|------------------------------------------------------------------|
3|---------66666-888/101010-88888-101010/111111---4444-666666-------|
4|4444444--66666--xxx--x--x--x---88888-x--x--x--x--x--x-4444-666666-|
5|4444444--44444--666/-8-8-8---66666---8--8--8/-9-9--9--2222-444444-|
6|2222222-----------------------------------------------------------|

   Te Lo Pido Por Favor (por Favooor)
1|------------------------------------------------------------|
2|------------------------------------------------------------|
3|----------------------6666666666--8888888888--44444-66666---|
4|--4444444444--6666666666--8888888888--44444-66666-----------|(X2)
5|--4444444444--4444444444--6666666666--22222-44444-----------|
6|--2222222222------------------------------------------------|
Fin

1|-----------------------------------------------------------------|
2|-----------------------------------------------------------------|
3|--44-4-44-4-44-4-44-4--66-6-66-6-66-6-66-6--88-8-88-8-88-8-88-8--|
4|--44-4-44-4-44-4-44-4--66-6-66-6-66-6-66-6--88-8-88-8-88-8-88-8--|
5|--22-2-22-2-22-2-22-2--44-4-44-4-44-4-44-4--66-6-66-6-66-6-66-6--|
6|-----------------------------------------------------------------|
PM **     **       **      **        **      **      **      **
                         Te Lo Pido Por Favooor
1|----------------------------------------------------------|
2|----------------------------------------------------------|
3|--1010-10-1010-10-1010-10-1010-10---11-11/0---------------|
4|--1010-10-1010-10-1010-10-1010-10---11-11/0---------------|
5|---8-8---8---8--8--8---8--8---8---8--8---8----9----9/0----|
6|----------------------------------------------------------|
PM  * *           * *           *   *           *   *

~~~~~~~~~~~~~~~~~~~~~~~~~~~~~~~~~~~~~~~~~~~~~~~~~~~~~~~~~~~~~~~~~~~~~~~~~~~~~~~~~~~~~~~~~~~~~~~~~~~~~~~~~~~~~~~~~~~~~~~~~~~~~~~~~~~~~~~~~~~~~~~~~~~~~~~~~~
ESPERO QUE LA CALIFIQUEN BIEN PUES ES UN RATO HACER ESTO Y YA PARA IRME LE QUIERO MANDAR
SALUDOS A MI "AMIGO" FRANCISCO Y ASU AMIGA MONICA QUE LE GUSTA ALLISON (ESO CREO) Y
EL ROCK........
Related for Allison tab
Allison chords by Permanent Me