Song name
# A B C D E F G H I J K L M N O P Q R S T U V W X Y Z

Pernambuco - Sounds Of Bells Maxixe tab

Tuning: D-A-D-G-B-E

Sounds of Bells (Maxixe) 
by Joao Guimaraes 
Time: 2/4 (ALLEGRO)

-------------------------------------------------------------------------


                      /c7(1/2)-------------------------
    1   e   &   a   2   e   &   a     1   e   &   a   2   e   &   a  
              
E|---------------------10----------|--7------------------------------|
B|------------------------------7--|----------7---7-----<12>---------|
G|--------------------------7------|*---------7---7-------------<12>-|
D|---------------------------------|*------------------------<7>-----|
A|---------------------------------|------------------0--------------|
D|---------------------------------|--0------------------------------|
                        f

                                      /c5(1/2)-----------------------
    1   e   &   a   2   e   &   a     1   e   &   a   2   e   &   a  
              
E|---------------------------------|--------------------------5------|
B|--0-------------------0---2---3--|--7-------------------5-------7--|
G|----------0---0------------------|----------6---6------------------|
D|----------2---2------------------|----------5---5------------------|
A|---------------------------------|--0---------------0--------------|
D|--2---------------2--------------|---------------------------------|

    1   e   &   a   2   e   &   a     1   e   &   a   2   e   &   a  
              
E|---------------------------------|---------------------------------|
B|--0------------------------------|---------------------------------|
G|----------2---2-------2----------|---------------------------------|
D|----------4---4-----------4-^-0--|------7---4---0---5-------4------|
A|---------------------------------|---------------------------------|
D|--0---------------0--------------|--0---------------5-------4------|

                                      /c5(1/2)-----------------------
    1   e   &   a   2   e   &   a     1   e   &   a   2   e   &   a  
              
E|---------------------------------|--------------------------5------|
B|----------0---0-------0---2---3--|--7-------------------5-------7--|
G|----------0---0------------------|----------6---6------------------|
D|--2------------------------------|----------5---5------------------|
A|---------------------------------|--0---------------0--------------|
D|--2---------------0--------------|---------------------------------|

                      /c7(1/2)-------------------------
    1   e   &   a   2   e   &   a     1   e   &   a   2   e   &   a  
              
E|---------------------10----------|--7------------------------------|
B|--0---------------------------7--|----------7---7-----<12>---------|
G|----------2---2-----------7------|----------7---7-------------<12>-|
D|----------4---4---0--------------|-------------------------<7>-----|
A|---------------------------------|------------------0--------------|
D|--0------------------------------|--0------------------------------|

                                      /c5(1/2)-----------------------
    1   e   &   a   2   e   &   a     1   e   &   a   2   e   &   a  
              
E|---------------------------------|--------------------------5------|
B|--0-------------------0---2---3--|--7-------------------5-------7--|
G|----------0---0------------------|----------6---6------------------|
D|----------2---2------------------|----------5---5------------------|
A|---------------------------------|--0---------------0--------------|
D|--2---------------2--------------|---------------------------------|

    1   e   &   a   2   e   &   a     1   e   &   a   2   e   &   a  
              
E|---------------------------------|--------------------------5---7--|
B|--0------------------------------|------------------4---7----------|
G|----------2---2-------2----------|--------------5------------------|
D|----------4---4-----------4-^-0--|--1-\-4---7----------------------|
A|---------------------------------|---------------------------------|
D|--0---------------0--------------|---------------------------------|
                                      p

    1   e   &   a   2   e   &   a     1   e   &   a   2   e   &   a  
              
E|5^7^5-----0----------------------|---------------------------------|
B|------8-------0------------------|------------------0-------2------|
G|------------------0--------------|------2-----------0-------0------|
D|----------------------2----------|----------4-^-0---2-------2------|
A|--------------------------2---1--|--0-----------------------0------|
D|---------------------------------|------------------2--------------|

   ________________________________  ________________________________
  1) repeat section then go to 2    2)

    1   e   &   a   2   e   &   a     1   e   &   a   2   e   &   a  
              
E|---------------------10----------|---------------------------------|
B|--3---------------------------7--|--3------------------------------|
G|--2-----------------------7-----*|--2------------------------------|
D|--4---------------0-------------*|--4------------------------------|
A|----------0----------------------|---------------------------------|
D|--0------------------------------|--0------------------------------|

    1   e   &   a   2   e   &   a     1   e   &   a   2   e   &   a  
              
E|---------------------------------|----------------------8-------8--|
B|--3-------3---3---4-------4------|--7-----------------------7------|
G|*-4-------4---4---4-------4------|----------5---5------------------|
D|*-5-------5---5---5-------5------|----------7---7------------------|
A|---------------------------------|--0------------------------------|
D|--5---------------0--------------|------------------0--------------|
    mf

    1   e   &   a   2   e   &   a     1   e   &   a   2   e   &   a  
              
E|--8-------8---8---8-------8------|-10---------------------<12>-----|
B|--7-------7---7---5-------5------|----------8---8---8-<12>---------|
G|--5-------5---5---5-------5------|----------7---7---7----------<7>-|
D|--0------------------------------|--9------------------------------|
A|---------------------------------|---------------------------------|
D|------------------0--------------|---------------------------------|

    1   e   &   a   2   e   &   a     1   e   &   a   2   e   &   a  
              
E|-----------------------------10--|8^10^8-7-------------------------|
B|<12>----------0-------0----------|---------10---9---8---7-/-5------|
G|----<12>----------0-------7------|------------------------------7--|
D|---------<12>--------------------|---------------------------------|
A|---------------------------------|---------------------------------|
D|---------------------------------|---------------------------------|

    1   e   &   a   2   e   &   a     1   e   &   a   2   e   &   a  
              
E|--------------------------5------|---------------------------------|
B|--7-------------------5-------7--|--5---------------3--------------|
G|----------6---6------------------|----------5---5-----------5------|
D|----------5---5------------------|----------4---4-----------4------|
A|--0---------------0--------------|------------------0--------------|
D|---------------------------------|--0------------------------------|

    1   e   &   a   2   e   &   a     1   e   &   a   2   e   &   a  
              
E|---------------------------------|----------------------8-------8--|
B|--3-------3---3---4-------4------|--7-----------------------7------|
G|--4-------4---4---4-------4------|----------5---5------------------|
D|--5-------5---5---5-------5------|----------7---7------------------|
A|---------------------------------|--0------------------------------|
D|--5---------------0--------------|------------------0--------------|

    1   e   &   a   2   e   &   a     1   e   &   a   2   e   &   a  
              
E|--8-------8---8---8-------8------|-10----------------------12--10--|
B|--7-------7---7---5-------5------|----------8---8---8--12----------|
G|--5-------5---5---5-------5------|----------7---7---7--------------|
D|--0------------------------------|--9------------------------------|
A|---------------------------------|---------------------------------|
D|------------------0--------------|---------------------------------|

    1   e   &   a   2   e   &   a     1   e   &   a   2   e   &   a  
              
E|----------0----------------------|---------------------------------|
B|-12-^-9-------3-^-0--------------|--------------1---------------4--|
G|----------------------1----------|----------2---------------3------|
D|--------------------------2-^-0--|------2---------------5----------|
A|---------------------------------|--3---------------6--------------|
D|---------------------------------|---------------------------------|
                                      _______________________________
                                     1) repeat section, then go to 2
    1   e   &   a   2   e   &   a     1   e   &   a   2   e   &   a  
              
E|---------------------------------|--3------------------------------|
B|--------------3---5-------3------|--0-------------------3---3---3--|
G|----------4-------5-------2------|--0-----------------------------*|
D|------5-----------4-------4------|------0---0---0---0-------------*|
A|--5------------------------------|---------------------------------|
D|------------------0--------------|--5------------------------------|

    ______________________________
  2)
                      /c7(1/2)-------------------------
    1   e   &   a   2   e   &   a     1   e   &   a   2   e   &   a  
              
E|--3------------------10----------|--7------------------------------|
B|--0---------------------------7--|----------7---7-----<12>---------|
G|--0-----------------------7------|----------7---7-------------<12>-|
D|---------------------------------|-------------------------<7>-----|
A|---------------------------------|------------------0--------------|
D|--5------------------------------|--0------------------------------|

                                      /c5(1/2)-----------------------
    1   e   &   a   2   e   &   a     1   e   &   a   2   e   &   a  
              
E|---------------------------------|--------------------------5------|
B|--0-------------------0---2---3--|--7-------------------5-------7--|
G|----------0---0------------------|----------6---6------------------|
D|----------2---2------------------|----------5---5------------------|
A|---------------------------------|--0---------------0--------------|
D|--2---------------2--------------|---------------------------------|

    1   e   &   a   2   e   &   a     1   e   &   a   2   e   &   a  
              
E|---------------------------------|---------------------------------|
B|--0------------------------------|---------------------------------|
G|----------2---2-------2----------|---------------------------------|
D|----------4---4-----------4-^-0--|------7---4---0---5-------4------|
A|---------------------------------|---------------------------------|
D|--0---------------0--------------|--0---------------5-------4------|

                                      /c5(1/2)-----------------------
    1   e   &   a   2   e   &   a     1   e   &   a   2   e   &   a  
              
E|---------------------------------|--------------------------5------|
B|----------0---0-------0---2---3--|--7-------------------5-------7--|
G|----------0---0------------------|----------6---6------------------|
D|--2------------------------------|----------5---5------------------|
A|---------------------------------|--0---------------0--------------|
D|--2---------------0--------------|---------------------------------|

                      /c7(1/2)-------------------------
    1   e   &   a   2   e   &   a     1   e   &   a   2   e   &   a  
              
E|---------------------10----------|--7------------------------------|
B|--0---------------------------7--|----------7---7-----<12>---------|
G|----------2---2-----------7------|----------7---7-------------<12>-|
D|----------4---4---0--------------|-------------------------<7>-----|
A|---------------------------------|------------------0--------------|
D|--0------------------------------|--0------------------------------|

                                      /c5(1/2)-----------------------
    1   e   &   a   2   e   &   a     1   e   &   a   2   e   &   a  
              
E|---------------------------------|--------------------------5------|
B|--0-------------------0---2---3--|--7-------------------5-------7--|
G|----------0---0------------------|----------6---6------------------|
D|----------2---2------------------|----------5---5------------------|
A|---------------------------------|--0---------------0--------------|
D|--2---------------2--------------|---------------------------------|

    1   e   &   a   2   e   &   a     1   e   &   a   2   e   &   a  
              
E|---------------------------------|--------------------------5---7--|
B|--0------------------------------|------------------4---7----------|
G|----------2---2-------2----------|--------------5------------------|
D|----------4---4-----------4-^-0--|--1-\-4---7----------------------|
A|---------------------------------|---------------------------------|
D|--0---------------0--------------|---------------------------------|
                                      p

    1   e   &   a   2   e   &   a     1   e   &   a   2   e   &   a  
              
E|5^7^5-----0----------------------|---------------------------------|
B|------8-------0------------------|------------------0-------2------|
G|------------------0--------------|------2-----------0-------0------|
D|----------------------2----------|----------4-^-0---2-------2------|
A|--------------------------2---1--|--0-----------------------0------|
D|---------------------------------|------------------2--------------|


    1   e   &   a   2   e   &   a     1   e   &   a   2   e   &   a  
              
E|-----------------10--------------|---------------------------------|
B|--3---------------7--------------|---------------------------------|
G|--2---------------7--------------|---------------------------------|
D|--4---------------0--------------|---------------------------------|
A|---------------------------------|---------------------------------|
D|--0------------------------------|---------------------------------|



Some notes:
 /  = slide
 ^  = pull-off or hammer-on (depending on which way)
<#> = harmonic on the #th fret.

f,p,mf,ff,mp,pp = usual notation.

Tap to rate this tab
# A B C D E F G H I J K L M N O P Q R S T U V W X Y Z