Song name
# A B C D E F G H I J K L M N O P Q R S T U V W X Y Z

Pernambuco - Interrogando Jongo tab

Interrogando (Jongo) - Pernambuco (Joao Teixeira Guimaraes) (1883-1947)
******************************************************************************
1st version - by E Ceja, Turibio Santos arrangement, with barres
2nd version - by Jorge Sampaio, Joao Batista-Baia arrangement, as MIDI
******************************************************************************

Interrogando
Music by Joao Pernambuco (1883-1947)
Arranged by Turibio Santos
Tablature by E.Ceja - September 2005
e-mail: chingon93@excite.com

******************************************************************
measure 54 - repeat sign added
measure 65 - missing notes added (F/D on 5th/6th strings repeated)
measure 66 - missing notes added (E/C on 5th/6th strings repeated)
measure 81 - added
NOTE - listen to the MIDI to hear the rhythm
edited by Weed -- weed@wussu.com -- 11 May 2011
******************************************************************

Tuning: D A D G B E     Key: D     Time: 2/4

0          VII..............   V................   II..............
e|-----|| ----10------9-----|----5--------------|------------------|
b|-----|| --------7------7--|-------------7-----|----3-------2-----|
g|-----||*--------7------7--|-------6--------6--|-------2-------4--|
d|-----||*--0-------0-------|-------5--------5--|-------4-------4--|
a|--0--|| ------------------|--0-------0--------|------------------|
d|-----|| ------------------|-------------------|--0-------0-------|

4  II...............  I...............                                           
e|------------------|------------------|------------------|------------------|
b|------------------|------------------|------------------|------------------|
g|-----2-------2----|-----2-------2----|-----0-------0----|-----7-------7----|
d|-----5-------5----|-----1-------1----|-----2-------2----|-----6-------6----|
a|---2---2---4---4--|---2---2---2---2--|---2---2---2---2--|---7---7---7---7--|
d|-2-------2--------|-1-------1--------|-2-------2--------|-6-------6--------|

8  V............     VII..........    V............    II............
e|------------5----|----7------9----|----5-----------|-----------------|
b|----------5---5--|------7------7--|-----------7----|----3-------2----|
g|--------6--------|------7------7--|------6------6--|------2-------4--|
d|------5----------|----------------|------5------5--|------4-------4--|
a|----7------------|----------------|--0------0------|-----------------|
d|--5--------------|--0------0------|----------------|--0------0-------|

12 II..............    V................   IV................
e|-------------------|------5-------5----|------4--------4----|
b|-------------------|------7-------7----|------6--------6----|
g|------2-------2----|----5-------5------|----4--------4------|
d|------5-------5----|-------------------|--------------------|
a|----2---2---4---4--|--6-------6-----6--|--5--------5-----5--|
d|--2-------2--------|--------7----------|---------6----------|
                        2 1 1 4 2 1 1 2     2 1 1  4 2 1 1 2
                            3       3           3        3

15 III..............   II...............   I.................
e|------3-------3----|------2-------2----|------1--------1----|
b|------5-------5----|------4-------4----|------3--------3----|
g|----3-------3------|----2-------2------|----1--------1------|
d|-------------------|-------------------|--------------------|
a|--4-------4-----4--|--3-------3-----3--|--2--------2-----2--|
d|--------5----------|--------4----------|---------3----------|
    2 1 1 4 2 1 1 2     2 1 1 4 2 1 1 2     2 1 1  4 2 1 1 2   
        3       3           3       3           3        3 

18                      II..............
e|------------------|-----------------|---------- || -----------------|
b|------------------|-----------------|-----3---- || -----------------|
g|----------4p2-----|-----2-------2---|-----2----*||*-----2-------4---|
d|---2h3-4------4p0-|-----5-------5---|-----4----*||*-----4-------4---|
a|-0----------------|---2---2---4---4-|-----5--0- || ---0---0---0---0-|
d|------------------|-2-------2-------|--0------- || -0-------0-------|

22 II...............                       II............
e|-------------------|-------------------|-------------------|
b|-------------------|-------------------|-------------------|
g|------2-------2----|------2-------4----|------2-------2----|
d|------5-------5----|------4-------4----|------5-------5----|
a|----2---2---4---4--|----0---0---0---0--|----2---2---4---4--|
d|--2-------2--------|--0-------0--------|--2-------2--------|

25 I..............                    III.............  IV..............
e|-----------------|-----------------|-----------------|-----------------|
b|-----------------|-----------------|-----------------|-----4-------4---|
g|-----2-------2---|-----0-------0---|-----4-------4---|-----6-------6---|
d|-----1-------1---|-----2-------2---|-----3-------3---|---7---7---7---7-|
a|---2---2---2---2-|---2---2---2---2-|---4---4---4---4-|-----------------|
d|-1-------1-------|-2-------2-------|-3-------3-------|-4-------4-------|

                                                        1st.................. 
29 V..............   VII.............                          VII........
e|-----------------|-----7-------7---|-----7-------5---|-12p10-----7-------- ||
b|-----5-------5---|-----7-------7---|-----8-------8---|---------7---10p7--- ||
g|-----7-------7---|---7---7---7---7-|---6---6---6---6-|-------7------------*||
d|---8---8---8---8-|-----------------|-----------------|--------------------*||
a|-----------------|-----------------|-0-------0-------|------------------0- ||
d|-5-------5-------|-7-------7-------|-----------------|-0------------------ ||

33 2nd... 
e|-10----|---10-----9---|---5---------|-------------|
b|--7----|------7-----7-|---------7---|---3-----2---|
g|--7----|------7-----7-|-----6-----6-|-----2-----4-|
d|-------|-0------0-----|-----5-----5-|-----4-----4-|
a|-----0-|--------------|-0-----0-----|-------------|
d|--0----|--------------|-------------|-0-----0-----|

37 II...............   I...............                                          
e|-------------------|------------------|------------------|------------------|
b|-------------------|------------------|------------------|------------------|
g|------2-------2----|-----2-------2----|-----0-------0----|-----7-------7----|
d|------5-------5----|-----1-------1----|-----2-------2----|-----6-------6----|
a|----2---2---4---4--|---2---2---2---2--|---2---2---2---2--|---7---7---7---7--|
d|--2-------2--------|-1-------1--------|-2-------2--------|-6-------6--------|

41 V............     VII..........    V............    II............
e|------------5----|----7------9----|----5-----------|-----------------|
b|----------5---5--|------7------7--|-----------7----|----3-------2----|
g|--------6--------|------7------7--|------6------6--|------2-------4--|
d|------5----------|----------------|------5------5--|------4-------4--|
a|----7------------|----------------|--0------0------|-----------------|
d|--5--------------|--0------0------|----------------|--0------0-------|

45 II..............    V................   IV................
e|-------------------|------5-------5----|------4--------4----|
b|-------------------|------7-------7----|------6--------6----|
g|------2-------2----|----5-------5------|----4--------4------|
d|------5-------5----|-------------------|--------------------|
a|----2---2---4---4--|--6-------6-----6--|--5--------5-----5--|
d|--2-------2--------|--------7----------|---------6----------|

48 III..............   II...............   I.................
e|------3-------3----|------2-------2----|------1--------1----|
b|------5-------5----|------4-------4----|------3--------3----|
g|----3-------3------|----2-------2------|----1--------1------|
d|-------------------|-------------------|--------------------|
a|--4-------4-----4--|--3-------3-----3--|--2--------2-----2--|
d|--------5----------|--------4----------|---------3----------|

51                    II..............
e|------------------|-----------------|----------| 
b|------------------|-----------------|-----3----| 
g|----------4p2-----|-----2-------2---|-----2----|
d|---2h3-4------4p0-|-----5-------5---|-----4----|
a|-0----------------|---2---2---4---4-|-----5--0-| 
d|------------------|-2-------2-------|--0-------| 

54  III....                         III....
e|--3-------2---|-----------------|-3-------2---|-----------------|
b|----3-3-----5-|-----3-------3---|---3-3-----5-|-----3-------3---|
g|*---4-4-----4-|-----5-------5---|---4-4-----4-|-----5-------5---|
d|*-5-----------|---2---2---4---4-|-5-----------|---2---2---4---4-|
a|--------------|-0-------0-------|-------------|-0-------0-------|
d|--------0-----|-----------------|-------0-----|-----------------|

58 VII.....................................................................
e|-7---------------|---------7--------|-7---------------|---------7--------|
b|----8-8----8-----|-----------10-----|----8-8----8-----|-----------10-----|
g|-------------9---|-------7------7---|-------------9---|-------7------7---|
d|----9-9--------9-|---8h9----------9-|----9-9--------9-|---8h9----------9-|
a|-7------10-------|-9----------------|-7------10-------|-9----------------|
d|-----------------|------------------|-----------------|------------------|

62 VI........... V...............  IV..............  III.............
e|-------------|-----------------|-----------------|-----------------|
b|-------------|-----------------|-----------------|-----------------|
g|---7-7-7-7-7-|-----6-------6---|-----5-------5---|-----4-------4---|
d|---6-6-6-6-6-|-----5-------5---|-----4-------4---|-----3-------3---|
a|---8-8-8-8-8-|---7---7---7---7-|---5---5---5---5-|---5---5---5---5-|
d|-6-----------|-5-------5-------|-4-------4-------|-3-------3-------|

                                                          1st 
66                                                        III.............
e|-----------------|-----------------|------------------|-5p3------------- ||
b|-----------------|-----------------|------5-------3---|-3-------5p3----- ||
g|-----2-------2---|-----0-------0---|------5-------5---|-4-----4-----4---*||
d|-----2-------2---|-----0-------0---|----4---4---4---4-|-5---5---------0-*||
a|---3---3---3---3-|---2---2---2---2-|--0-------0-------|----------------- ||
d|-2-------2-------|-0-------0-------|------------------|----------------- ||

   2nd ..
70 III     VII..........   V..........                 II...............  
e|-3---||----10-----9-7-|---5---------|-------------|-------------------|
b|-3---||-------7-----7-|---------7-5-|---3-----3---|-------------------|
g|-4---||-------7-----7-|-----6-----6-|-----2-----4-|------2-------2----|
d|-5---||--0------0-----|-----5-----5-|-----4-----4-|------5-------5----|
a|---0-||---------------|-0-----0-----|-------------|----2---2---4---4--|
d|-----||---------------|-------------|-0-----0-----|--2-------2--------|

75 I...............                                          V.............
e|------------------|------------------|------------------|------------5----|
b|------------------|------------------|------------------|----------5---5--|
g|-----2-------2----|-----0-------0----|-----7-------7----|--------6--------|
d|-----1-------1----|-----2-------2----|-----6-------6----|------5----------|
a|---2---2---2---2--|---2---2---2---2--|---7---7---7---7--|----7------------|
d|-1-------1--------|-2-------2--------|-6-------6--------|--5--------------|

79  VII..........    V............    II...........    II...............
e|----7------9----|----5-----------|----------------|--------------------|
b|------7------7--|-----------7----|----3------2----|--------------------|
g|------7------7--|------6------6--|-------2-----4--|------2-------2-----|
d|----------------|------5------5--|-------4-----4--|------5-------5-----|
a|----------------|--0------0------|----------------|----2---2---4---4---|
d|--0------0------|----------------|--0------0------|--2-------2-------2-|

82 V................   IV.............   III............  II..............
e|-----5--------5---|-----4-------4---|-----3-------3---|-----2-------2---|
b|-----7--------7---|-----6-------6---|-----5-------5---|-----4-------4---|
g|---5--------5-----|---4-------4-----|---3-------3-----|---2-------2-----|
d|------------------|-----------------|-----------------|-----------------|
a|-6--------6-----6-|-5-------5-----5-|-4-------4-----4-|-3-------3-----3-|
d|-------7----------|-------6---------|-------5---------|-------4---------|

86 I..............
e|-----1-------1---|-----------------|-----------------|-----10--||
b|-----3-------3---|-----------------|-----------------|------7--||
g|---1-------1-----|---------4p2-----|-----2-------2---|------7--||
d|-----------------|---2h3-4-----4p0-|-----5-------5---|------0--||
a|-2-------2-----2-|-0---------------|---2---2---4---4-|---0-----||
d|-------3---------|-----------------|-2-------2-------|-0-------||


******************************************************************************
******************************************************************************

Title: Interrogando
Author: Joгo Teixeira Guimarгes (Joгo Pernambuco)
Arranged by Joгo Batista-Bбia

Tabbed by Jorge Sampaio

6th string tuned to D

0
E|----------|----10--------9------|----5----------------|---------------------|
B|----------|--------7---------7--|--------------7------|----3---------2------|
G|----------|*-------7---------7--|--------6---------6--|--------2---------4--|
D|----------|*0---------0---------|--------5---------5--|--------4---------4--|
A|------0---|---------------------|-0---------0---------|---------------------|
D|----------|---------------------|---------------------|-0---------0---------|

4
E|-------------------------|-------------------------|-------------------------|
B|-------------------------|-------------------------|-------------------------|
G|-------2-----------2-----|-------2-----------2-----|-------0-----------0-----|
D|-------5-----------5-----|-------1-----------1-----|-------2-----------2-----|
A|----2-----2-----4-----4--|----2-----2-----2-----2--|----2-----2-----2-----2--|
D|-2-----------2-----------|-1-----------1-----------|-2-----------2-----------|

7
E|-------------------------|-----------------5-----|----10--------9------|
B|-------------------------|--------------5-----5--|--------7---------7--|
G|-------7-----------7-----|-----------6-----------|--------7---------7--|
D|-------6-----------6-----|--------5--------------|---------------------|
A|----7-----7-----7-----7--|----7------------------|---------------------|
D|-6-----------6-----------|-5---------------------|-0---------0---------|

10
E|----5----------------|---------------------|-------------------------|
B|--------------7------|----3---------2------|-------------------------|
G|--------6---------6--|--------2---------4--|-------2-----------2-----|
D|--------5---------5--|--------4---------4--|-------5-----------5-----|
A|-0---------0---------|---------------------|----2-----2-----4-----4--|
D|---------------------|-0---------0---------|-2-----------2-----------|

13
E|-------5-----------5-----|-------4-----------4-----|-------3-----------3-----|
B|-------7-----------7-----|-------6-----------6-----|-------5-----------5-----|
G|----5-----------5--------|----4-----------4--------|----3-----------3--------|
D|-------------------------|-------------------------|-------------------------|
A|-6-----------6--------6--|-5-----------5--------5--|-4-----------4--------4--|
D|----------7--------------|----------6--------------|----------5--------------|

16
E|-------2-----------2-----|-------1-----------1-----|-------------------------|
B|-------4-----------4-----|-------3-----------3-----|-------------------------|
G|----2-----------2--------|----1-----------1--------|-------------4--2--------|
D|-------------------------|-------------------------|----2--3--4--------4--2--|
A|-3-----------3--------3--|-2-----------2--------2--|-0-----------------------|
D|----------4--------------|----------3--------------|-------------------------|

19
E|-------------------------|--------------|
B|-------------------------|------3-------|
G|-------2-----------2-----|------2------*|
D|-------5-----------5-----|------4------*|
A|----2-----2-----4-----4--|------5---0---|
D|-2-----------2-----------|-0------------|

21
E|-------------------------|-------------------------|-------------------------|
B|-------------------------|-------------------------|-------------------------|
G|*------2-----------4-----|-------2-----------2-----|-------2-----------4-----|
D|*------4-----------4-----|-------5-----------5-----|-------4-----------4-----|
A|----0-----0-----0-----0--|----2-----2-----4-----4--|----0-----0-----0-----0--|
D|-0-----------0-----------|-2-----------2-----------|-0-----------0-----------|

24
E|-------------------------|-------------------------|-------------------------|
B|-------------------------|-------------------------|-------------------------|
G|-------2-----------2-----|-------2-----------2-----|-------0-----------0-----|
D|-------5-----------5-----|-------1-----------1-----|-------2-----------2-----|
A|----2-----2-----4-----4--|----2-----2-----2-----2--|----2-----2-----2-----2--|
D|-2-----------2-----------|-1-----------1-----------|-2-----------2-----------|

27
E|-------------------------|-------------------------|-------------------------|
B|-------------------------|-------4-----------4-----|-------5-----------5-----|
G|-------4-----------4-----|-------6-----------6-----|-------7-----------7-----|
D|-------3-----------3-----|----7-----7-----7-----7--|----8-----8-----8-----8--|
A|----4-----4-----4-----4--|-------------------------|-------------------------|
D|-3-----------3-----------|-4-----------4-----------|-5-----------5-----------|

30                                                     1st
E|-------7-----------7-----|-------7-----------7-----|-12-10-------7-----------|
B|-------7-----------7-----|-------8-----------8-----|----------7-----10-7-----|
G|----7-----7-----7-----7--|----6-----6-----6-----6--|-------7----------------*|
D|-------------------------|-------------------------|------------------------*|
A|-------------------------|-0-----------0-----------|----------------------0--|
D|-7-----------7-----------|-------------------------|-0-----------------------|

33 2nd
E|-10--------|----10--------9------|----5----------------|---------------------|
B|-7---------|--------7---------7--|--------------7------|----3---------2------|
G|-7---------|--------7---------7--|--------6---------6--|--------2---------4--|
D|-----------|-0---------0---------|--------5---------5--|--------4---------4--|
A|-------0---|---------------------|-0---------0---------|---------------------|
D|-0---------|---------------------|---------------------|-0---------0---------|

37
E|-------------------------|-------------------------|-------------------------|
B|-------------------------|-------------------------|-------------------------|
G|-------2-----------2-----|-------2-----------2-----|-------0-----------0-----|
D|-------5-----------5-----|-------1-----------1-----|-------2-----------2-----|
A|----2-----2-----4-----4--|----2-----2-----2-----2--|----2-----2-----2-----2--|
D|-2-----------2-----------|-1-----------1-----------|-2-----------2-----------|

40
E|-------------------------|-----------------5-----|----10--------9------|
B|-------------------------|--------------5-----5--|--------7---------7--|
G|-------7-----------7-----|-----------6-----------|--------7---------7--|
D|-------6-----------6-----|--------5--------------|---------------------|
A|----7-----7-----7-----7--|----7------------------|---------------------|
D|-6-----------6-----------|-5---------------------|-0---------0---------|

43
E|----5----------------|---------------------|-------------------------|
B|--------------7------|----3---------2------|-------------------------|
G|--------6---------6--|--------2---------4--|-------2-----------2-----|
D|--------5---------5--|--------4---------4--|-------5-----------5-----|
A|-0---------0---------|---------------------|----2-----2-----4-----4--|
D|---------------------|-0---------0---------|-2-----------2-----------|

46
E|-------5-----------5-----|-------4-----------4-----|-------3-----------3-----|
B|-------7-----------7-----|-------6-----------6-----|-------5-----------5-----|
G|----5-----------5--------|----4-----------4--------|----3-----------3--------|
D|-------------------------|-------------------------|-------------------------|
A|-6-----------6--------6--|-5-----------5--------5--|-4-----------4--------4--|
D|----------7--------------|----------6--------------|----------5--------------|

49
E|-------2-----------2-----|-------1-----------1-----|-------------------------|
B|-------4-----------4-----|-------3-----------3-----|-------------------------|
G|----2-----------2--------|----1-----------1--------|-------------4--2--------|
D|-------------------------|-------------------------|----2--3--4--------4--2--|
A|-3-----------3--------3--|-2-----------2--------2--|-0-----------------------|
D|----------4--------------|----------3--------------|-------------------------|

52
E|-------------------------|--------------|
B|-------------------------|------3-------|
G|-------2-----------2-----|------2-------|
D|-------5-----------5-----|------4-------|
A|----2-----2-----4-----4--|------5---0---|
D|-2-----------2-----------|-0------------|


54
E|-3------------2------|-------------------------|-3------------2------|
B|----3---3---------5--|-------3-----------3-----|----3---3---------5--|
G|*---4---4---------4--|-------5-----------5-----|----4---4---------4--|
D|*5-------------------|----2-----2-----4-----4--|-5-------------------|
A|---------------------|-0-----------0-----------|---------------------|
D|-----------0---------|-------------------------|-----------0---------|

57
E|-------------------------|-7-----------------------|-------------7-----------|
B|-------3-----------3-----|----8-----8-----8--------|----------------10-------|
G|-------5-----------5-----|-------------------9-----|----------7--------7-----|
D|----2-----2-----4-----4--|----9-----9-----------9--|----8--9--------------9--|
A|-0-----------0-----------|-7-----------10----------|-9-----------------------|
D|-------------------------|-------------------------|-------------------------|

60
E|-7---------------------|-------------7-----------|---------------------|
B|----8---8-----8--------|----------------10-------|---------------------|
G|-----------------9-----|----------7--------7-----|----7---7--7--7---7--|
D|----9---9-----------9--|----8--9--------------9--|----6---6--6--6---6--|
A|-7---------10----------|-9-----------------------|----8---8--8--8---8--|
D|-----------------------|-------------------------|-6-------------------|

63
E|-------------------------|-------------------------|-------------------------|
B|-------------------------|-------------------------|-------------------------|
G|-------6-----------6-----|-------5-----------5-----|-------4-----------4-----|
D|-------5-----------5-----|-------4-----------4-----|-------3-----------3-----|
A|----7-----7-----7-----7--|----5-----5-----5-----5--|----5-----5-----5-----5--|
D|-5-----------5-----------|-4-----------4-----------|-3-----------3-----------|

66
E|-------------------------|-------------------------|-------------------------|
B|-------------------------|-------------------------|-------5-----------3-----|
G|-------2-----------2-----|-------0-----------0-----|-------5-----------5-----|
D|-------2-----------2-----|-------0-----------0-----|----4-----4-----4-----4--|
A|----3-----3-----3-----3--|----2-----2-----2-----2--|-0-----------0-----------|
D|-2-----------2-----------|-0-----------0-----------|-------------------------|

69 1st
E|-5--3--------------------|
B|-3-----------5--3--------|
G|-4--------4--------4----*|
D|-5-----5--------------0-*|
A|-------------------------|
D|-------------------------|

70 2nd
E|-3------------|----10--------9------|----5----------------|
B|-3------------|--------7---------7--|--------------7------|
G|-4------------|--------7---------7--|--------6---------6--|
D|-5------------|-0---------0---------|--------5---------5--|
A|----------0---|---------------------|-0---------0---------|
D|--------------|---------------------|---------------------|

73
E|---------------------|-------------------------|-------------------------|
B|----3---------2------|-------------------------|-------------------------|
G|--------2---------4--|-------2-----------2-----|-------2-----------2-----|
D|--------4---------4--|-------5-----------5-----|-------1-----------1-----|
A|---------------------|----2-----2-----4-----4--|----2-----2-----2-----2--|
D|-0---------0---------|-2-----------2-----------|-1-----------1-----------|

76
E|-------------------------|-------------------------|-----------------5-----|
B|-------------------------|-------------------------|--------------5-----5--|
G|-------0-----------0-----|-------7-----------7-----|-----------6-----------|
D|-------2-----------2-----|-------6-----------6-----|--------5--------------|
A|----2-----2-----2-----2--|----7-----7-----7-----7--|----7------------------|
D|-2-----------2-----------|-6-----------6-----------|-5---------------------|

79
E|----10--------9------|----5----------------|---------------------|
B|--------7---------7--|--------------7------|----3---------2------|
G|--------7---------7--|--------6---------6--|--------2---------4--|
D|---------------------|--------5---------5--|--------4---------4--|
A|---------------------|-0---------0---------|---------------------|
D|-0---------0---------|---------------------|-0---------0---------|

82
E|-------------------------|-------5-----------5-----|-------4-----------4-----|
B|-------------------------|-------7-----------7-----|-------6-----------6-----|
G|-------2-----------2-----|----5-----------5--------|----4-----------4--------|
D|-------5-----------5-----|-------------------------|-------------------------|
A|----2-----2-----4-----4--|-6-----------6--------6--|-5-----------5--------5--|
D|-2-----------2-----------|----------7--------------|----------6--------------|

85
E|-------3-----------3-----|-------2-----------2-----|-------1-----------1-----|
B|-------5-----------5-----|-------4-----------4-----|-------3-----------3-----|
G|----3-----------3--------|----2-----------2--------|----1-----------1--------|
D|-------------------------|-------------------------|-------------------------|
A|-4-----------4--------4--|-3-----------3--------3--|-2-----------2--------2--|
D|----------5--------------|----------4--------------|----------3--------------|

88
E|-------------------------|-------------------------|---------10---||
B|-------------------------|-------------------------|---------7----||
G|-------------4--2--------|-------2-----------2-----|---------7----||
D|----2--3--4--------4--2--|-------5-----------5-----|---------0----||
A|-0-----------------------|----2-----2-----4-----4--|-----0--------||
D|-------------------------|-2-----------2-----------|-0------------||
Tap to rate this tab
# A B C D E F G H I J K L M N O P Q R S T U V W X Y Z