Song name
# A B C D E F G H I J K L M N O P Q R S T U V W X Y Z

Perpetual Groove - 53 More Things To Do In Zero Gravity tab

Intro


e----------------------------------------|
b----------------------------------------|
g----/9--8--9v---/9---8------------------|
d-------------------------9v-------------|
a----------------------------------------|
e----------------------------------------|




Opening riff
e----------------------------------------|
b-5--4--2----2----5-5--4-----------------|
g---------4---------------4-2--4/6--4----|
d----------------------------------------|
a----------------------------------------|
e----------------------------------------|

Do this a few times before the bass comes in
e-----------------------------------------|
b-----------------------------------------|
g-------------------------9---------------|
d-7--6--7------7--6----7------------------|
a----------7/9-------9--------------------|
e-----------------------------------------|

When the piano comes in
e-----------------------------------------|
b-----------------------------------------|
g-----------------------------------------|
d--4---5-4------4---5-4-------2--4--2-----|
a-5--5-----5--2--2------2-----------------|
e--------------------------5---5----------|

Then comes the piano part

D-D-D-D  (piano riff)

A-A-A-A  (piano riff)


These riffs are repeated later in the song

e-----------------------------------------|
b---------10------------------------------|
g-7--9--7----9----------------------------|
d-----------------------------------------|
a-----------------------------------------|
e-----------------------------------------|

e-----------------------------------------|
b-----------------------------------------|
g-6--7--6------------6--7--6--9--7--6-----|      
d-----------9--7--9-----------------------|
a-----------------------------------------|
e-----------------------------------------|





For the rest, just solo away in E Major.


Thanks to perpetual archives for some of this tab. I fixed most of it though.


One of my favorite songs off all this everything
Tap to rate this tab
 
# A B C D E F G H I J K L M N O P Q R S T U V W X Y Z