Song name
# A B C D E F G H I J K L M N O P Q R S T U V W X Y Z

Perpetual Groove - Sun Dog tab

Intro:

|---3-----3-----3------------------|
|-----3-----3------3--------<7>----|
|-5-----4-----2------0------<7>----|
|---------------------------<7>----|
|----------------------------------|
|----------------------------------|

Main Riff A:
|---------------------------------------3-----3-----3---------------|
|---------------------------5-------------3-----3-----3-------<7>---|
|-----4---7---5-4---4---4-5---7---5-4-5-----4-----2-----0-----<7>---|
|-5-7---5---5-----5---5---------------------------------------<7>---|
|-------------------------------------------------------------------|
|-------------------------------------------------------------------|

Main Riff B:
|---------------------------------------3-----3-----3----------------|
|---------------------------5-------------3-----3------3-------<7>---|
|-----4---7---5---5-4---4-5---7---5-4-5-----4-----2------0-----<7>---|
|-5-7----------------------------------------------------------<7>---|
|--------------------------------------------------------------------|
|--------------------------------------------------------------------|

Play main riff A twice, then Main riff B twice, then Main riff twice again but during 
the last time around don't play the <7>'s (which are harmonics)

Quiet Section:
        Cadd9                  G
|-------3----------------------3-----------------|
|-------3-ARPEGGIO!!!----------3-ARPEGGIO!!!!!---|
|-------0----------------------0-----------------|
|-------2----------------------0-----------------|
|-0-3-0-3----------------------2-----------------|
|------------------------0-3-0-3-----------------|
Don't strum the chords; pick them them during the space marked "ARPEGGIO"

Back in to the Main Riff sequence, then the quiet section again which leads into the 
next part with this:

|-----------------|
|-----------------|
|---------------2-|
|---------2-4-5---|
|---2-3-5---------|
|-5---------------|

Middle Section:

|---------------------------------|
|---------------------------------|
|-5-0-0-4-0-0-5-0-0-4-0-0---------|
|-------------------------3-0-5-0-|
|---------------------------------|
|---------------------------------| play this four times then:

|---------------------------------|---------------------------------|
|---------------------------------|---------------------------------|
|---------------------------------|---------------------------------|
|-4-0-0-4-0-0-4-0-0-4-0-0-4-0-4-0-|-5-0-0-5-0-0-5-0-0-5-0-0-5-0-5-0-|
|---------------------------------|---------------------------------|
|---------------------------------|---------------------------------|

|---------------------------------|---------------------------------|
|---------------------------------|---------------------------------|
|---------------------------------|---------------------------------|
|-7-0-0-7-0-0-7-0-0-7-0-0-7-0-7-0-|-7-0-0-7-0-0-7-0-0-7-0-0-7\------|
|---------------------------------|---------------------------------|
|---------------------------------|---------------------------------|

Play the last two parts two more times but end with this which is played pretty fast:
|-------------------------------------7-------7-8----7-8-10\-------|
|---------7------7-8---7-8-10----8-10------10----------------------|
|-7---7-9------9---------------------------------------------------|
|------------------------------------------------------------------|
|------------------------------------------------------------------|
|------------------------------------------------------------------|

The next part is kind of played like this. It's hard to tell exactly what he is playing 
and he mixes it up each time. Play this twice.
|------10-------------10------------------------10---------------|
|-10B-----10r--8-10B-----10r-8-10B-8-10B-8-10B-----10r-8-10~-----|
|----------------------------------------------------------------|
|----------------------------------------------------------------|
|----------------------------------------------------------------|
|----------------------------------------------------------------|

Then:
|-14-------14-------14-------14-------14----------|
|----15-------15-------15-------15-------15-------|
|-------14-------14-------14-------14-------14~---|
|-------------------------------------------------|
|-------------------------------------------------|
|-------------------------------------------------|

|-15-------15-------15-------15-------15----------|
|----15-------15-------15-------15-------15-------|
|-------14-------14-------14-------14-------14~---|
|-------------------------------------------------|
|-------------------------------------------------|
|-------------------------------------------------|

|-17-------17-------17-------17-------17----17----|
|-------15-------15-------15-------15-------------|
|----14-------14-------14-------14-------14----14-|
|-------------------------------------------------|
|-------------------------------------------------|
|-------------------------------------------------|

|-17p14----17p14----17p14----17p14----17p14----17p14----17~\--------------|
|--------15-------15-------15-------15-------15-------15------------------|
|------14-------14-------14-------14-------14-------14--------------------|
|-------------------------------------------------------------------------|
|-------------------------------------------------------------------------|
|-------------------------------------------------------------------------|
This also might not be exactly what he's playing but it sounds good.

Repeat last two parts then go play the first two riffs of the middle section.

The middle section ends with this:
|---------------------------------|---------------------------------|
|---------------------------------|---------------------------------|
|---------------------------------|---------------------------------|
|-7-0-0-7-0-0-7-0-0-7-0-0-7-0-7-0-|-7-0-0-7-0-0-7-0-0-7-0-0-7-0-7-0-|
|---------------------------------|---------------------------------|
|---------------------------------|---------------------------------|
  Eb     D       Db           C
|----------------------------------|
|-8------5-------6-6---6-6----5----|
|-8------7-------6-6---6-6----5----|
|-8------7-------6-6---6-6----5----|
|-6------5-------4-4---4-4----3----|
|----------------------------------|

The slow guitar solo is played over something like this:
  G             C
|----3-----3------------------|
|----3-----3----5---5---5h6p5-|
|----4-----4----5---5---5-----|
|----5-----5----5---5---5-----|
|---------------3---3---3-----|
|-3 --------------------------|

And the fast guitar solo is played over something like this:
  G       C       G       C
|-10--10--12--12--10--10--12----|
|-12--12--13--13--12--12--13----|
|-12--12--12--12--12--12--12----|
|-------------------------------|
|-------------------------------|
|-------------------------------|
Really any voicings of the G and C chord will work but I like those ones.

The solos are both in G so play around in the G major and pentatonic scales.

The songs ends with this:
  Eb     D       Db           C   G
|---------------------------------3---------|
|-8------5-------6-6---6-6----5---3---------|
|-8------7-------6-6---6-6----5---4---------|
|-8------7-------6-6---6-6----5---5---------|
|-6------5-------4-4---4-4----3---5---------|
|---------------------------------3---------|
Tap to rate this tab
# A B C D E F G H I J K L M N O P Q R S T U V W X Y Z