Song name
# A B C D E F G H I J K L M N O P Q R S T U V W X Y Z

Perpetual Groove - Walking In Place tab

-------------------------------------------------------------------------------
			 Walking in Place - Perpetual Groove
-------------------------------------------------------------------------------
Tabbed by: jojobeasty

Tuning: standard

Verse:
	G sharp m7				A sharp m7
e|---------------------------------------------------------------------------|
B|---------4--------------------------------------6--------------------------|
G|---------4--------------------------------------6--------------------------|
D|---------4--------------------------------------6--------------------------|
A|---------X--------------------------------------X--------------------------|
E|---------4--------------------------------------6--------------------------|

Chorus:
	F sharp		C sharp		B	D sharp m	C sharp	    B
e|---------2--------------------------------------6--------------------------|
B|---------2--------------6-----------4-----------7--------------6-------4---|
G|---------3--------------6-----------4-----------8--------------6-------4---|
D|---------4--------------6-----------4-----------8--------------6-------4---|
A|---------4--------------4-----------2-----------6--------------4-------2---|
E|---------2-----------------------------------------------------------------|

Another guitar can improvise and solo in F sharp major 

| /  slide up
| \  slide down
| h  hammer-on
| p  pull-off
| ~  vibrato
| +  harmonic
| x  Mute note
===============================================================================
Tap to rate this tab
# A B C D E F G H I J K L M N O P Q R S T U V W X Y Z