Song name
# A B C D E F G H I J K L M N O P Q R S T U V W X Y Z

Perpetual Groove - Turn Back The Hands Of Time tab

Chords:

  C#  F#  A#m  G#
e--4---2---6---4----|
B--6---2---6---4----|
G--6---3---6---5----|
D--6---4---8---6----|
A--4---4---8---6----|
E------2---6---4----|


Riff:     Repeated throughout most of song
  C#            F#
e-----------------------------|
B-----------------------------|
G---------------6-6---6-------|
D-----------6-8-----8---8/6---|
A-4-x-4-6/8-------------------|
E-----------------------------|

[C#]Oh darling [F#]I'm so lonely without [C#]you [F#]
[C#]Can't sleep at night [F#] always think about [C#] you [F#]
[C#]But if I had the chance to [F#] start all over
[C#]I would be wishing today on a [F#] four leaf clover
And [A#m] leaving you with the [G#] last thing on my [F#] mind
If I could turn back the hands of time [C#]

Oh darling I can't hold out much longer
Oh the pain's so deep and the hurt is getting stronger
But if I had just one more try
I would be yours, yours alone until the day I die
and we would have a love so divine
If I could turn back the hands of time

Oh darling please, please let me come back home
Your love has been so good to me baby
And without it I can't go on
But if I had just one more try
I would be yours, yours alone until the day I die
and its gonna be the best thing on my mind
If I could turn back the hands of time

wgwood@uga.edu
Tap to rate this tab
# A B C D E F G H I J K L M N O P Q R S T U V W X Y Z