Song name
# A B C D E F G H I J K L M N O P Q R S T U V W X Y Z

Perry Como - Thank Heaven For Little Girls tab

Thank Heaven for Little Girls 

Slow jazz arrangement by Tony Crowley  
Mp3/MIDI from crowley@macace.net

 |       |       |       Am11     F#M7    GM7     |       |        
|--------------------------------|--------------------------------|
|------------------------3-------|2-------3-----------------------|
|------------------------5-------|3-------4-----------------------|
|------------------------5-------|3-------4-----------------------|
|--------------------------------|--------------------------------|
|------------------------5-------|2-------3-----------------------|
 
 |       D7      CM7     D7       GM7     |       |       |        
|--------2-------3-------5-------|7-------------------------------|
|--------1-------5-------7-------|7-------------------------------|
|--------2-------4-------5-------|7-------------------------------|
|--------0-------5-------7-------|5-------------------------------|
|----------------0-------5-------|--------------------------------|
|--------------------------------|--------------------------------|
 
 |       |       |       GM+9     GM+9    G       |       |        
|------------------------5-------|5-------3-------3-------2-------|
|------------------------3-------|3-------3-------3-------0-------|
|------------------------4-------|4-------4-------4-------0-------|
|------------------------0-------|0-------0-------0-------4-------|
|--------------------------------|--------------------------------|
|--------------------------------|--------------------------------|
 
 GM+9    G       |       |        | D7    |       |       |        
|5-------3-------3-------2-------|2-------------------------------|
|3-------3-------3-------0-------|1-------------------------------|
|2-------4-------4-------0-------|2-------------------------------|
|0-------0-------0-------4-------|0-------------------------------|
|--------------------------------|0-------------------------------|
|--------------------------------|--------------------------------|
 
 |       |       |       E+       G#m     Am      |       |        
|--------------------------------|4-------5-----------------------|
|------------------------5-------|4-------5-----------------------|
|------------------------5-------|4-------5-----------------------|
|------------------------6-------|6-------7-----------------------|
|------------------------7-------|6-------7-----------------------|
|--------------------------------|--------------------------------|
 
 |       E7      E7sus4  E7       Bdim7   |       |       |        
|--------4-------5-------7-------|10------------------------------|
|--------3-------3-------0-------|9-------------------------------|
|--------4-------4-------7-------|10------------------------------|
|--------2-------2-------6-------|9-------------------------------|
|------------------------7-------|--------------------------------|
|--------------------------------|--------------------------------|
 
 |       |       |     Am7b5      |       CM9     |     F#m7b5     
|------------------------8-------|8-------7-------7-------5-------|
|------------------------8-------|8-------5-------5-------5-------|
|------------------------8-------|8-------5-------5-------5-------|
|------------------------7-------|7-------5-------5-------4-------|
|--------------------------------|--------------------------------|
|--------------------------------|--------------------------------|
 
 |       D7      |       |        GM7     |       Am7     Bm7      
|5-------2-------2-------0-------|--------------------------------|
|5-------1-------1---------------|--------3-------5-------7-------|
|5-------2-------2---------------|--------4-------5-------7-------|
|4-------0-------0---------------|--------4-------5-------7-------|
|--------------------------------|--------------------------------|
|--------------------------------|3---------------5-------7-------|
 
 Dm7     |       |       |        G7      |       F6b5    |        
|------------------------3-------|3-------5-------5-------3-------|
|10------------------------------|3---------------3---------------|
|10------------------------------|4---------------4---------------|
|10------------------------------|3---------------3---------------|
|--------------------------------|--------------------------------|
|10------------------------------|--------------------------------|
 
 G7      |       F6b5    |        CM7     |       Am7     |        
|3-------5-------5-------3-------|7---------------5---------------|
|3---------------3---------------|5---------------5---------------|
|4---------------4---------------|5---------------5---------------|
|3---------------3---------------|5---------------5---------------|
|--------------------------------|--------------------------------|
|--------------------------------|--------------------------------|
 
 |       |       |       |        G6b5    |       |       |        
|--------3-------5-------3-------|7-------3-------5-------3-------|
|--------------------------------|5-------------------------------|
|--------------------------------|6-------------------------------|
|--------------------------------|5-------------------------------|
|--------------------------------|--------------------------------|
|--------------------------------|--------------------------------|
 
 GM7b5   |       |       |        D13     |       D7      |        
|7-------3-------5-------3-------|7---------------5---------------|
|7-------------------------------|7-------------------------------|
|6-------------------------------|5---------------5---------------|
|5-------------------------------|4---------------4---------------|
|--------------------------------|5---------------5---------------|
|--------------------------------|--------------------------------|
 
 |       |       Am11    |        F#M7    GM7     |       |        
|--------------------------------|--------------------------------|
|----------------3---------------|2-------3-----------------------|
|----------------5---------------|3-------4-----------------------|
|----------------5---------------|3-------4-----------------------|
|--------------------------------|--------------------------------|
|----------------5---------------|2-------3-----------------------|
 
 |       D7      CM7     D7       GM7     |       |       |        
|--------2-------3-------5-------|7-------------------------------|
|--------1-------5-------7-------|7-------------------------------|
|--------2-------4-------5-------|7-------------------------------|
|--------0-------5-------7-------|5-------------------------------|
|----------------0-------5-------|--------------------------------|
|--------------------------------|--------------------------------|
 
 |       |       |       Am7      Bm7     B+7     |       |        
|------------------------8-------|10------7-------7-------7-------|
|------------------------8-------|10------8-------8-------8-------|
|------------------------9-------|11------8-------8-------8-------|
|------------------------7-------|9-------7-------7-------7-------|
|--------------------------------|--------------------------------|
|--------------------------------|--------------------------------|
 
 Em7     |       |       |        Cm6     |       |       |        
|7-----------------------7-------|8-------7-------8-------9-------|
|8-------8-------8-------8-------|8---------------8---------------|
|7-----------------------7-------|8---------------8---------------|
|9-----------------------9-------|7---------------7---------------|
|7-----------------------7-------|--------------------------------|
|--------------------------------|--------------------------------|
 
 A#6+4   |       Cm7     |        CM7     |       |       |        
|10--------------8---------------|7-----------------------5-------|
|8---------------8---------------|5-------8-------8---------------|
|8---------------8---------------|5-------------------------------|
|8---------------8---------------|5-------------------------------|
|--------------------------------|--------------------------------|
|--------------------------------|--------------------------------|
 
 D13     |       |       |        | G     |       |       |        
|7---------------7---------------|3-------------------------------|
|7-------7-------7---------------|3-------------------------------|
|5---------------5---------------|4-------------------------------|
|4---------------4---------------|5-------------------------------|
|5---------------5---------------|5-------------------------------|
|--------------------------------|3-------------------------------|
 
 |       |       |       D7       C# 7b5  D7      |       |        
|--------------------------------|--------------------------------|
|------------------------3-------|2-------3-----------------------|
|------------------------5-------|4-------5-----------------------|
|------------------------4-------|3-------4-----------------------|
|------------------------5-------|4-------3-----------------------|
|--------------------------------|--------------------------------|
 
 |       |       |       GM7      F#M7    GM7     |       |        
|--------------------------------|--------------------------------|
|------------------------3-------|2-------3-----------------------|
|------------------------4-------|3-------4-----------------------|
|------------------------4-------|3-------4-----------------------|
|--------------------------------|--------------------------------|
|------------------------3-------|2-------3-----------------------|
 
 |       |       |       D7       C# 7b5  D7      |       |        
|--------------------------------|--------------------------------|
|------------------------3-------|2-------3---------------3-------|
|------------------------5-------|4-------5---------------5-------|
|------------------------4-------|3-------4---------------4-------|
|------------------------5-------|4-------5---------------5-------|
|--------------------------------|--------------------------------|
 
 Am7     |       D13     |        Dm11    |       C# 7b5  |        
|5---------------7---------------|--------------------------------|
|5---------------7---------------|8-------8-------8-------8-------|
|5---------------5---------------|10------10------10------10------|
|5---------------4---------------|10------10------9-------9-------|
|----------------5---------------|--------------------------------|
|5-------------------------------|10------10------9-------9-------|
 
 CM7     |       Cm7     |        Am11    |       Ab7b5   |        
|--------------------------------|--------------------------------|
|8-------8-------8-------8-------|3-------3-------3-------3-------|
|9-------9-------8-------8-------|5-------5-------5-------5-------|
|9-------9-------8-------8-------|5-------5-------4-------4-------|
|--------------------------------|--------------------------------|
|8-------8-------8-------8-------|5-------5-------4-------4-------|
 
 GM7     |       |       |        
|--------------------------------|
|3-------------------------------|
|4-------------------------------|
|4-------------------------------|
|--------------------------------|
|3-------------------------------|
 

Created with TablEdit for Mac - http://www.tabledit.com/
Tap to rate this tab
 
# A B C D E F G H I J K L M N O P Q R S T U V W X Y Z