Song name
# A B C D E F G H I J K L M N O P Q R S T U V W X Y Z

Persiana Jones - Correndo tab

Help us improve GuitareTab! Take a short survey!
Autore: Persiana Jones
Titolo: Correndo solo
Tab by: Fony

Intro:
    1   +   2   +   3   +   4   +   1   +   2   +   3   +   4   +
E|--8---5---5---5-5-8---5---5---5-5-8---5---5---5-5-8-------10---|
A|--6---3---3---3-3-6---3---3---3-3-6---3---3---3-3-6--------8---|
D|--6---3---3---3-3-6---3---3---3-3-6---3---3---3-3-6--------8---|x2
G|---------------------------------------------------------------|
B|---------------------------------------------------------------|
e|---------------------------------------------------------------|

Riff1:
Ska
    1   +   2   +   3   +   4   +   1   +   2   +   3   +   4   +
E|--5---5---5---5---1---1---1---1---3---3---3---3---3---3---3---3--|
A|--7---7---7---7---3---3---3---3---3---3---3---3---5---5---5---5--|
D|--7---7---7---7---3---3---3---3---5---5---5---5---5---5---5---5--|
G|--5---5---5---5---2---2---2---2---5---5---5---5---4---4---4---4--|
B|--5---5---5---5---1---1---1---1---5---5---5---5---3---3---3---3--|
e|--5---5---5---5---1---1---1---1---3---3---3---3---3---3---3---3--|

    1   +   2   +   3   +   4   +   1   +   2   +   3   +   4   +
E|--5---5---5---5---1---1---1---1---3---3---3---3-x-3-x-3-x-3-x-3-x|
A|--7---7---7---7---3---3---3---3---3---3---3---3-x-5-x-5-x-5-x-5-x|
D|--7---7---7---7---3---3---3---3---5---5---5---5-x-5-x-5-x-5-x-5-x|
G|--5---5---5---5---2---2---2---2---5---5---5----------------------|
B|--5---5---5---5---1---1---1---1---5---5---5----------------------|
e|--5---5---5---5---1---1---1---1---3---3---3----------------------|

Riff2:
Distorto
   1   +   2   +   3   +   4   +   1   +   2   +   3   +   4   +
E|-5---5---5---5---1---1---1---1-------------------3---3---3---3-|
A|-7---7---7---7---3---3---3---3---3---3---3---3---5---5---5---5-|
D|-7---7---7---7---3---3---3---3---5---5---5---5---5---5---5---5-|x2
G|---------------------------------5---5---5---5-----------------|
B|---------------------------------------------------------------|
e|---------------------------------------------------------------|

Riff3:
Distorto
   1 + 2 + 3 + 4 + 1 + 2 + 3 + 4 + 1 + 2 + 3 + 4 + 1 + 2 + 3 + 4 +
E|-5-5-5---1-1-1-----------3-3-3---5-5-5---1-1-1-----------3-3-3-3-|
A|-x-x-7---x-x-3---3-3-3---x-x-5---x-x-7---x-x-3---3-3-3---5-5-5-5-|
D|-x-x-7---x-x-3---x-x-5---x-x-5---x-x-7---x-x-3---x-x-5---5-5-5-5-|
G|-----------------x-x-5---------------------------x-x-5-----------|
B|-----------------------------------------------------------------|
e|-----------------------------------------------------------------|

   1 + 2 + 3 + 4 + 1 + 2 + 3 + 4 + 1 + 2 + 3 + 4 + 1 + 2 + 3 + 4 +
E|-5-5-5---1-1-1-----------3-3-3---5-5-5---1-1-1-----------3-3-3-3-|
A|-x-x-7---x-x-3---3-3-3---x-x-5---x-x-7---x-x-3---3-3-3---5-5-5-5-|
D|-x-x-7---x-x-3---x-x-5---x-x-5---x-x-7---x-x-3---x-x-5---5-5-5-5-|
G|-----------------x-x-5---------------------------x-x-5-----------|
B|-----------------------------------------------------------------|
e|-----------------------------------------------------------------|

    1   +   2   +   3   +   4   +   1   +   2   +   3   +   4   +
E|--1-x-x-x-x-x-x-x-x-x-x-x-x-x-x-x-3---3---3---3---3---3---3---3--|
A|--3-x-x-x-x-x-x-x-x-x-x-x-x-x-x-x-5---5---5---5---5---5---5---5--|
D|--3-x-x-x-x-x-x-x-x-x-x-x-x-x-x-x-5---5---5---5---5---5---5---5--|
G|-----------------------------------------------------------------|
B|-----------------------------------------------------------------|
e|-----------------------------------------------------------------|

Ordine
Intro
Riff1
Riff2
Riff1
Riff3
Intro
Riff1
Riff3
Riff2
Riff2
Riff2
Riff2
Riff3
Intro
Related for Correndo tab