Song name
# A B C D E F G H I J K L M N O P Q R S T U V W X Y Z

Persiana Jones - Puerto Hurraco tab

Persiana jones puerto hurraco
normal tuning
Tab by fulvio capra fulvibus91@hotmail.it

Intro

--------------------------------------------------------------------------------|
--------------------------------------------------------------------------------|
--------------------------------------------------------------------------------|
--x-2--2--2--2-----------x-6--6--6--6-\-2--2----x-2--2--2--2-----------x-7-6-2--|
--x-2--2--2--2--2--2----x-6--6--6--6-\-2--2----x-2--2--2--2--2--2----x----------|
--x-0--0--0--0--0--0----x-4--4--4--4-\-0--0----x-0--0--0--0--0--0----x----------|

Verse

------------------------------------------------------------------------|
------------------------------------------------------------------------|
------------------------------------------------------------------------|
-2-2-2-2-2-2-2---4-4-4-4-4-4-4---6-6-6-6-6-6-6---2-2-2--4---------------|
-2-2-2-2-2-2-2---4-4-4-4-4-4-4---6-6-6-6-6-6-6---2-2-2--4---------------|
-0-0-0-0-0-0-0---2-2-2-2-2-2-2---4-4-4-4-4-4-4---0-0-0--2---------------|

Chorus

-----------------------------------------------------------------------|
-----------------------------------------------------------------------|
--4--4-4-4-4-4---------------------------------------------------------|
--4--4-4-4-4-4-4--4-4-4-4-4--6--6-6-6-6-6-2--2-2-4--4-4----------------|
--2--2-2-2-2-2-4--4-4-4-4-4--6--6-6-6-4-4-2--2-2-4--4-4----------------|
------------------2--2-2-2-2-2--4--4-4-4-4-4-0--0-0-2--2-2-------------|

Outtro
----------------------------------------|
----------------------------------------|
----------------------------------------|
-2--2--2--2--4--4----7-6-2--------------|
-2--2--2--2--4--4-----------------------|
-0--0--0--0--2--2-----------------------|
song  Structure

intro x2
verse x2
intro x1
verse x2
chorus x4
intro x1
verse x2
chorus x6
bridge( same of chorus) x2
chorus x4
outtro x1
Tap to rate this tab
 
# A B C D E F G H I J K L M N O P Q R S T U V W X Y Z