Song name
# A B C D E F G H I J K L M N O P Q R S T U V W X Y Z

Person L - Pleasure Is All Mine tab

Here is a tab of "Pleasure is all Mine" by the band, Person L.

A fairly easy song I just picked up by listening to it a few times, so its pretty accurate.

Standard Tuning

e-----7-7-7-7------------------|                                  
B-----7-7-7-7------------------|                               
G-----7-7-7-7------------------|                                     
D-----9-9-9-9---------5--------|                                                 
A-----7-7-7-7---5--7-----7--5--|       
E-0----------------------------|

e-----7-7-7-7------------------|                                  
B-----7-7-7-7------------------|                               
G-----7-7-7-7------------------|                                     
D-----9-9-9-9---------5--------|                  
A-----7-7-7-7---5--7-----7--5--|       
E-0----------------------------|

e-----7-7-7-7-----------------------------------------------------|    
B-----7-7-7-7-----------------------------------------------------|
G-----7-7-7-7-----------------------------------------------------|   
D-----9-9-9-9---------5------------7--5--7--5---------------------|       
A-----7-7-7-7---5--7-----7--5------------------5--7---------------|       
E-0-----------------------------0---------------------------------|
Tap to rate this tab
 
# A B C D E F G H I J K L M N O P Q R S T U V W X Y Z