Song name
# A B C D E F G H I J K L M N O P Q R S T U V W X Y Z

Pesawat - Mirage tab

Pesawat   : Mirage
Tuning    : Standard (EADGBe)
Tabbed by : Hariz05

This is not the Radio edit version.
This is their 1st recording version.

MySpace.com/Pesawat

[INTRO]

Guitar 1
e|-7777777777777777-2222222222222222-|x2
B|-9999999999999999-4444444444444444-|
G|-8888888888888888-3333333333333333-|
D|-9999999999999999-4444444444444444-|
A|-7777777777777777-2222222222222222-|
E|-----------------------------------|

[RIFF]

Guitar 1
e|-7777777777777777-2222222222222222-|x2
B|-9999999999999999-4444444444444444-|
G|-8888888888888888-3333333333333333-|
D|-9999999999999999-4444444444444444-|
A|-7777777777777777-2222222222222222-|
E|-----------------------------------|

Guitar 2
e|-----------------------------------|
B|-----------------------------------|
G|--------8-8------------------------|
D|-9-8--------9-8h9-8h9--------------|
A|-----11----------------------------|
E|-----------------------------------|\
                                       x2
e|-----------------------------------|/
B|-----------------------------------|
G|--------11-11-8-6h8-6h8------------|
D|-9-8-------------------------------|
A|-----11----------------------------|
E|-----------------------------------|

[VERSE] x2

Guitar 1
e|-7~--------------------2~----------|x4
B|-9~--------------------4~----------|
G|-8~--------------------3~----------|
D|-9~--------------------4~----------|
A|-7~--------------------2~----------|
E|-----------------------------------|
  "Cahaya terang, menembusi..."

e|-----------------------------------|
B|-----------------------------------|
G|-4444/6-666/8-888/9-99-------------|
D|-----------------------------------|
A|-2222/4-444/6-666/7-77-------------|
E|-----------------------------------|
  "Pernah ku kenal sebelum ini..."

[CHORUS] x2

Guitar 1
e|-7777777777777777-2222222222222222-|x2
B|-9999999999999999-4444444444444444-|
G|-8888888888888888-3333333333333333-|
D|-9999999999999999-4444444444444444-|
A|-7777777777777777-2222222222222222-|
E|-----------------------------------|
  "Siang malam termimpi mimpi..." 

Guitar 2
e|-----------------------------------|
B|-----------------------------------|
G|--------8-8------------------------|
D|-9-8--------9-8h9-8h9--------------|
A|-----11----------------------------|
E|-----------------------------------|\
                                       x2
e|-----------------------------------|/
B|-----------------------------------|
G|--------11-11-8-6h8-6h8------------|
D|-9-8-------------------------------|
A|-----11----------------------------|
E|-----------------------------------|

Repeat [VERSE]
Repeat [CHORUS] x2

[BRIDGE] x2

Guitar 2
e|-----------------|x2
B|-----------------|
G|-------------9-9-|
D|-----(9)---------|
A|-6-7-(7)-7-7-----|
E|-----------------|

e|-----------------|x2
B|-----------------|
G|-------------4-4-|
D|-----(4)---------|
A|-1-2-(2)-2-2-----|
E|-----------------|

e|-----------------------------------|
B|-----------------------------------|
G|-4444/6-666/8-888/9-99-------------|
D|-----------------------------------|
A|-2222/4-444/6-666/7-77-------------|
E|-----------------------------------|
  "Jiwaku semakin kacau..."

Repeat [CHORUS] x2

-End-

http://www.myspace.com/pesawat
Tap to rate this tab
# A B C D E F G H I J K L M N O P Q R S T U V W X Y Z