Song name
# A B C D E F G H I J K L M N O P Q R S T U V W X Y Z

Pescado Rabioso - Rock De La Madre Selva tab

Intro: [Solo teclado con base G (x4) /
        G - D - Am -- G - D (x2)]

  G D   Am   G             D  G  D   Am   G              D
  Madre-selva por el prado va, madre-selva de buscar su amor;
G              Bm      Em7   G               Bm       Em7
  su corola al aire se dio     y en su mente gotas de algo...
  Eb                        C/G
  Espejismo, lava de moles, vamos ya...


Inter: [Solo teclado con base G (x2)]


  G D   Am   G             D   G D   Am   G              D
  Madre-selva por el prado va, madre-selva de buscar su amor;
G              Bm       Em7   G               Bm       Em7
  su corola al aire se abrió    y en su mente gotas de algo...
  Eb                        C/G
  Espejismo, lava de moles, vamos ya...


Inter: [Solo teclado con base G (x20) /
        G - D - Am -- G - D (x2)]

  G D   Am   G             D   G D   Am   G              D
  Madre-selva por el prado va, madre-selva de buscar su amor;
G              Bm      Em7   G              Bm       Em7
  su corola al aire se dio    y en su mente gotas de algo...
  Eb                        C/G
  Espejismo, lava de moles, vamos ya...


Inter: [Solo teclado con base G (x2)]

Final: [Solo guitarra con base G - D - Bb - B - C - D (x6) -
        G - D - Am -- G]

---------------------------------------------------------------

SOLO:
(perdón, pero no soy muy bueno con los códigos en las tab)

e.-------------------------------------------------------|
B.------------------------------------------------12--12-|
G.-12-------12-14b-14-12-14-12-10-10-9-7-------12---12---|
D.----12-14------------------------------10-12-----------|
A.-------------------------------------------------------|
E.-------------------------------------------------------|

e.-----------------------------------------------|
B.--------------------------------------12----12-|
G.-14b-14b-14b-12-14-10-10-9-7-------12----12----|
D.-----------------------------10-12-------------|
A.-----------------------------------------------|
E.-----------------------------------------------|

e.---------------------------------------------------------|
B.-/17-15-17-15-17-17b-17b-17---------------------12----12-|
G.-----------------------------10-10-9-7-------12----12----|
D.---------------------------------------10-12-------------|
A.---------------------------------------------------------|
E.---------------------------------------------------------|

e.-------------------------------------------------|
B.-17b-17b-17b-17b-17---------------------12----12-|
G.---------------------10-10-9-7-------12----12----|
D.-------------------------------10-12-------------|
A.-------------------------------------------------|
E.-------------------------------------------------|

e.-----------------------------------------------------|
B.-17b-17b-17-17-15-17-15---------------------12----12-|
G.-------------------------10-10-9-7-------12----12----|
D.-----------------------------------10-12-------------|
A.-----------------------------------------------------|
E.-----------------------------------------------------|

e.----------------------------------------------------|
B.-15h17-17b-17-15-15-17------------------------12----|
G.-----------------------12--10-10-9-7-------12----12-|
D.-------------------------------------10-12----------|
A.----------------------------------------------------|
E.----------------------------------------------------|
Tap to rate this tab
# A B C D E F G H I J K L M N O P Q R S T U V W X Y Z