Song name
# A B C D E F G H I J K L M N O P Q R S T U V W X Y Z

Pescado Rabioso - Como El Viento Voy A Ver tab

Introducion: (La repite 7 veces)
e----------------------------|
b----------------------------|
g---4-4-4-4-4----------------|
d---4-4-4-4-4-2--------4-4---|
a---2-2-2-2-2-0------1-4-5-0-|
E---------------3-2--0-2-3---|



Esto es lo que hace sobre Bm7(lo repite 10 veces).
e----------2----2------------|
b----------2h3--3------------|
g----------2----2------------|
d----------2h4--4------------|
a----------2----2------------|
E---1*2-5--------------------|
*:el mismo dedo se desplaza al siguiente traste
h:piso la cuerda con el dedo

Esto es lo que hace sobre Em7 (repite 4 veces)
e---------------3------------|
b---------------0------------|
g---------------0------------|
d----------0h2--2------------|
a---1*2-5--------------------|
E----------------------------|

Esto es lo que hace sobre F#m (solo una vez)
e-----------2----------------|
b-----------2----------------|
g-----------2----------------|
d-----------4----------------|
a-----------4----------------|
E---1*2-5-2-2----------------|


Bm7
Vos no me dejaste, nena
vos no me dejaste
tampoco yo a vos
Em7
Vos no me dejaste, nena
vos no me dejaste
Bm7
tampoco yo a vos
F#m                                          G
Muy bien, yo se que el tiempo es impreciso
no se lo que pensar.
          D           Bm
Como el viento voy a ver
          D           Bm
como el viento voy a ver
          D           Bm
como el viento uuuuhhhhh
                     F#5  E5  D5  Db5  B5
si es que puedo amarte.

EL solo no lo saque, pero esta sobre la misma base.
Y arreglito es este:
e-------------------|
b-------------------|
g----------7--------|
d------------9-9----|
a---6*7-10----------|
E-------------------|
Tap to rate this tab
# A B C D E F G H I J K L M N O P Q R S T U V W X Y Z