Song name
# A B C D E F G H I J K L M N O P Q R S T U V W X Y Z

Pescado Rabioso - Iniciado Del Alba chords

Highlighted       Show chord diagrams
D       Bm              (1)
 PuEdo ver, aqueLlO que no pensé,
               C      Em           B
y así es, De haber pensado en aquel..
                     G  (2)
Con las uvas bajo el sol...
D      Bm           (3)
y el temor (y el temor)
         (1)
y el agua de la pIel...
                 C      Em          B
y así es, que el vientO bruma le dió
                   G  (2)
como el beso de la piel

-8--7---5----6--5-----5-5-|
-8--8---7----7--7-----5-5-|
-7--7---7----7--7-----6-6-|
----------------------7-7-|
----------------------7-7-|
--------------------------|
 y aqui se escoNde el besO

-5---5-5-5---10--5-5--5---5-5---10--5-------5-5-|
-5---5-5-5---10--5-5--5---5-5---10--5-------5-5-|
-6---6-6-5---11--6-6--6---6-5---11--5-------5-6-|
-7---7-7-7---12--7-7--7---7-7---12--7-------7-7-|
-7---7-7-7---12--7-7--7---7-7---12--7-------7-7-|
------------------------------------------------|
 Sin memoria     luna del alba      Como El beSo

A#               Gm
   Ligustros húmedos
     D#            F          Gm (4)
y el pueblo que Amanece sin gemir

(1)
  E        C        E        E
e-4-4-4-4--3-4-4-4--4-4-4-4--4-4-4-4-|
x-5-5-5-5--5-5-5-5--5-5-5-5--5-5-5-5-|
x-4-4-4-4--5-5-5-5--4-4-4-4--4-4-4-4-|
  No       Pe__n    se    y asi es


(2)
  G
e-7-8-7--7-8-6--5--|
x-8-8-8--8-8-8--8--|
x-7-7-7--7-7-7--7--|


(3)
 Bm
-x-2--m2----------|
-x-3--m3----------|
-x-4--m4----------|
-x-4--m4----------|
-x-2--m2----------|
 ^ v   v
(4)
  Gm
e-6-6---6-6---|
x-8-9h8-8-9h8-|
x-7-7---7-7---|

D  x-x-0-2-3-2----|
Bm x-x-4-4-3-2----|
E  x-x-0-4-5-4----|
C* x-x-0-5-5-3----|
C  x-3-2-0-1-0----|
B  x-9-9-8-7-7----|
G  x-x-0-7-8-7----|
A  x-7-7-6-5-5----|
Am x-7-7-5-5-5----|
A# x-0-8-10-11-10-|
Gm x-x-0-7-8-6----|
D# x-x-0-8-8-6----|
F  x-x-0-5-6-5----|
F# x-4-4-3-2-2----|
Bb x-1-3-3-3-1----|
Tap to rate this tab
 
# A B C D E F G H I J K L M N O P Q R S T U V W X Y Z