Song name
# A B C D E F G H I J K L M N O P Q R S T U V W X Y Z

Pescado Rabioso - Las Habladuras Del Mundo tab

Intro

e-----------------0--------9---------------------------------------9-|
b--12b14r12p9-----------------12b14-12b14r12p9--4--------------------|
g--------------8--9v--9h10----------------------6b8r6p4h6-----9h10---|
d---------------------------------------------------------9h11-------|
a--------------------------------------------------------------------|
E--------------------------------------------------------------------|

e-----------------------0--------9-----------------------------------|
b--12b14-12b14r12p9-----------------12b14-12b14r12p9--------9--------|
g--------------------8--9v--9h10----------------------11b13-11b13----|
d--------------------------------------------------------------------|
a--------------------------------------------------------------------|
E--------------------------------------------------------------------|

e--------------------------/
b--9------14---------------/
g--11b13-----11b13--11b13v-/
d--------------------------/
a--------------------------/
E--------------------------/

Verso

e----------------------------------|
b--------------5--7--7b9--7--5-----|
g--------4--6--------------------6-|
d--4--6----------------------------|
a----------------------------------|
E----------------------------------|


e---------7----------7------------5----------5----------------------|
b-------7---------7-------------5---------5-------------------------|
g-----8--------8--------------6--------6------------------4--4h6----|
d--9--------9-----------9--7--------7-----------6/0--4h6------------|
a-----------------------------------------------------------------4-|
E-------------------------------------------------------------------|

e--------------------------------------0-----/
b--------------------------------------5--5--/
g-------4-4-4-6--------------------4/--4--6--/
d--4h6--------------6--------5-----4/--3--6--/
a----------------4-----4--3-----3--2/--4--4--/
E--------------------------------------------/


...No estoy atado a ningun sueño ya...

e--------------------------11-12-11-12-11-11v------------------------|
b----------------------------------------------(9)r8b9---------------|
g------------------------------------------------------------4--4h6--|
d-------------------------------------------------------4h6----------|
a--------------------------------------------------------------------|
E--------------------------------------------------------------------|

e------------------|
b------------------|
g----------4-4-4-6-|
d-----4h6----------|
a--4---------------|
E------------------|

Solo

e------11b12--11-9----------------------------------------------------|
b--9-9-------------12-10-9-------------------------------12b14--12-9--|
g--------------------------11--9------11b13v---11---9-9---------------|
d---------------------------------11----------------------------------|
a---------------------------------------------------------------------|
E---------------------------------------------------------------------|

---------------------------11b12--11--9----------------------11-11-11--|v
----------------------------------------12p10p9------------------------|
---11----9--------------------------------------11p9h11/13v------------|
------11---11-9------11v-----------------------------------------------|
-----------------11----------------------------------------------------|
-----------------------------------------------------------------------|

----------------------------------------------------------------------|
--------12b14--12--9-------------------12b14--12-10-9-----------------|
---9-9---------------11--9--------9-9-----------------11-9------------|
---------------------------9-------------------------------11-9-------|
------------------------------11--------------------------------11----|
----------------------------------------------------------------------|


...No estoy atado a ningun sueño ya...

------11----12----14-----11-12----12----------------------------------|
---9-----9-----9------9--------12----12/9-----------------10-9--------|
-------------------------------------------9/8/9v--8-9v--------11-9---|
----------------------------------------------------------------------|
----------------------------------------------------------------------|
----------------------------------------------------------------------|

---------------------------------|
---------------------------------|
---11b13--11b13v---11-9----------|
------------------------11-9-----|
------------------------------9v-|
---------------------------------|
Tap to rate this tab
# A B C D E F G H I J K L M N O P Q R S T U V W X Y Z