Song name
# A B C D E F G H I J K L M N O P Q R S T U V W X Y Z

Pescado Rabioso - Mi Espritu Se Fue chords

Highlighted       Show chord diagrams
          Am     Am/G  D/A  C/A   (G) (F) (E)

e--------|-0----(0)----0---0-----------------/
b----1---|-1-1--(1)----7---5-----8----7---5--/
g--2-2-2-|-2-2--(2)----7---5-----x----7---5--/  ...
d--2-2-2-|-2-2--(2)----7---5-----9----x---x--/
a--0-0-0-|-0----(0)----0---0-----10-/-9-/-7--/
E--------|-------3---------------------------/

           Es mi espiritu que va,      llévame

           Es mi mente que al silbar, me encanta


Dm7               Em7
Hay un perro que me ladra y está afuera desde aquí


   Am   Am/G  D/A  C/A   (G) (F) (E)

e|------(0)----0---0----------7---5--/
b|-1-1--(1)----7---5-----8----7---5--/
g|-2-2--(2)----7---5-----x----7---5--/
d|-2-2--(2)----7---5-----9----x---x--/
a|-0----(0)----0---0-----10-/-9-/-7--/
E|-------3---------------------------/


Es mi espiritu que da mil vueltas
y se enreda en el jardín, llévame

Dm7               Em7
y es así como mi abuelo se complace desde allá


Dm            C  Bb              Am     [ch]G/G[/ch]*
Mi mente ya  entendió por qué está sola

Dm            C  Bb              Am     [ch]G/G[/ch]*
Mi mente ya  entendió por qué está sola


D             C# B  A  G#  F#  F#7
  Porque mi es pi  ri tu se  fue

Haaaa  aaaa

|D| |D/F| |D/E| |D/C| |D/Bb|

e------------------------/      |--------/
b----3---3--3------------/      |---3----/
g---2---2--------2---2---/      |--2-----/
d--0---3---2----0---0--0-/  X6  |-0---3*-/
a--------------3---1-----/      |--------/
E------------------------/      |--------/


   Am   Am/G  D/A  C/A   (G) (F) (E)

e|------(0)----0---0--.--------7---5--/
b|-1-1--(1)----7---5--.---8----7---5--/
g|-2-2--(2)----7---5--.---x----7---5--/
d|-2-2--(2)----7---5--.---9----x---x--/   Muteado
a|-0----(0)----0---0--.---10-/-9-/-7--/
E|-------3------------.---------------/

Es mi espíritu que va llevane
Es mi mente que al silbar
me encanta

Dm7               Em7
Es así que ladra un perro y es que ladra desde alla ha a ahhh!


Dm            C  Bb              Am     [ch]G/G[/ch]*
mi mente ya está sola con la noche
Dm            C  Bb              Am     [ch]G/G[/ch]*
mi mente ya entendió por qué está sola

D             C# B  A  G#  F#  F#7
Por qué mi espíritu se fue

|D| |D/F| |D/E| |D/C| |D/Bb|

e------------------------/
b----3---3--3------------/
g---2---2--------2---2---/
d--0---3---2----0---0--0-/
a--------------3---1-----/
E------------------------/
Tap to rate this tab
 
# A B C D E F G H I J K L M N O P Q R S T U V W X Y Z