Song name
# A B C D E F G H I J K L M N O P Q R S T U V W X Y Z

Pescado Rabioso - Nena Boba tab

e---------3-------------|------------3------3-----|
B-5u-5u-3---3-5u-6-5-3--|-3-5u-6-5-3---3-6u---6---|
G---------------------3-|-----------------------3-|
D-----------------------|-------------------------|
A-----------------------|-------------------------|
E-----------------------|-------------------------|

G7
Nena boba
no sabes bailar
G7
Nena boba
no sabes amar
C7
Yo te chisto
te quiero seguir
G7 (corte)
Y vos me respondes:
"Esto no es para mí"

A#7
Entonces quiero
    G7               Em     Em7
cortarme las venas, seis!
C7
¿Tal vez tomaste
      A7
demasiado mucho sol
        D7    D7 Db7 C7
en la arena?

SOLO:

e-------10-12u-12-10-12-10-12-12u-10-12-12u-10-|
B-11-12----------------------------------------|
G----------------------------------------------|
D----------------------------------------------|
A----------------------------------------------|
E----------------------------------------------|

e-12u-10-12-10--10---------|
B-------------13---11------|
G---------------------12---|
D--------------------------|
A--------------------------|
E--------------------------|

e-----------------------------------------13-------------|
B----11-13u-11----11-13u-11----11-13u-13u---13u-11-13-11-|
G-12-----------12-----------12---------------------------|
D--------------------------------------------------------|
A--------------------------------------------------------|
E--------------------------------------------------------|

G7
Nena boba
no sabes bailar
G7
Nena boba
no sabes amar
C7
Yo te entrego mi rosa
mas negra
G7 (corte)
Nena, nena boba
era verde turquesa

A#7
Yo ya no quiero
    G7             Em  Em7
perderme en abismo
C7
al fin y al cabo con las
A7                     D7    D7 Db7 C7
bobas siempre pasa lo mismo

(Subite a mi tren nena boba!)

FINAL: G7
Tap to rate this tab
# A B C D E F G H I J K L M N O P Q R S T U V W X Y Z