Song name
# A B C D E F G H I J K L M N O P Q R S T U V W X Y Z

Pescado Rabioso - Todas Las Hojas Son Del Viento chords

G13
Cuida bien al niño
Fmaj7
Cuida bien su mente
G13
Dale el sol de enero
Fmaj7
Dale un vientre blanco

Dale tibia leche de tu cuerpo
1---3------0------|
2---0------0------|
3---0------0------|
4---0------2------|
5---2------2------|
6---3---2---------|

C               D         G
Todas las hojas son del viento
Ya que las mueve hasta la muerte
Todas las hojas son del viento
F                 G
Menos la luz del sol

G13
Hoy que un hijo hiciste
Fmaj7
Cambia ya tu mente
G13
Cuídalo de drogas
Fmaj7
Nunca lo reprimas

Dale el áurea misma de tu
1---3------0------|
2---0------0------|
3---0------0------|
4---0------2------|
5---2------2------|
6---3---2---------|

C           D            G
Todas las hojas son del viento
Ya que él las mueve hasta en la muerte
Todas las hojas son del viento

F                 G
Menos la luz del sol

Solo:
1---10/12--10/12--10------------------------------------|
2--------------------10-12-10---10/12-10-8-8-8---3------|
3-----------------------------9-----------9-9-9---2h0-4-|
4-------------------------------------------------------|
5-------------------------------------------------------|
6-------------------------------------------------------|

G13      Fmaj7
1-0--   1--0--|
2-3--   2--1--|
3-4--   3--2--|
4-5--   4--3--|
5----   5-----|
6----   6-----|
Tap to rate this tab
# A B C D E F G H I J K L M N O P Q R S T U V W X Y Z