Song name
# A B C D E F G H I J K L M N O P Q R S T U V W X Y Z

Peste Noire - Vespre tab

-------------------------------------------------------------------------------
                             VESPRE - Peste Noire 
-------------------------------------------------------------------------------
Tabbed by: Vazelyne
E-mail: babaoroumqsd@gmail.com
Album: Ballade Cuntre Lo Anemi Francor
Tuning: EADGBe

e|--------------------------------------------------------------------3------|
B|----------------6-3-5-3-------3-1---------3-1-----------------6-5-6--------|
G|------------------------2-2-2-----2-2-3-2-----3-2-2-3-2---------------2-2-2|
D|--------------------------------------------------2-----2-3-2--------------|
A|----1-4---4-1-4------------------------------------------------------------|
E|--1-----2------------------------------------------------------------------|

e|---------------------------------------------------------------------------|
B|--3-1---------3-1-----------------------------3-1----------------3-1-------|
G|------2-2-3-2-----3-2-2-3-2-----------------------3-2~-----0---------3-2~--|
D|----------------------2-----2-3-2-2-3-2----------------2-3-----0----------2|
A|----------------------------------------2-3-2----------------3-------------|
E|---------------------------------------------------------------------------|

e|------6-5-5-5------------------|
B|-------------------------------|
G|----0---------2-0---2---2-0----|
D|--3---------------3---0-----3-3|
A|-------------------------------|
E|-------------------------------|
Tap to rate this tab
# A B C D E F G H I J K L M N O P Q R S T U V W X Y Z