Guitaretab - guitar tabs
Song name
# A B C D E F G H I J K L M N O P Q R S T U V W X Y Z

Pestilence - Presence Of The Dead tab

Pestilence "The Presence Of The Dead"
from the masterpiece "Testimony Of The Ancients"
            (Roadrunner 1991)
tabbed tabbed by Fasa     

Notes :
Normal Guitar tunning (E)
pm : palm muting
h : hammer on
p : pull off
/ : slide up
\ : slide down
bh : half bend

"Penso che non esistano parole per dire quanto  bella questa canzone" grande passo avanti per il sottoscritto nel suonare una canzone cosi’ stupenda. Un grandioso applauso ai Pestilence! La canzone
 corretta, per non ho ancora bene capito gli accordi del Pre-chorus sono giusti… comunque la canzone si mantiene su queste note… ed ora a voi il piacere di suonare Presence Of The Dead…” 
 
Musica : Patrick Mameli                   Testo :  Marco Foddis

Intro :


Guitar 1 :
-----------------------
-----------------------
-----------------------
-2--3--2---------------
-2--3--2---------------
-0--1--0--4-4h3h2h1----

Guitar 2 :

---------------------------
---------------------------
------------6-6h5h4h3------
-2--3--2-------------------
-2--3--2-------------------
-0--1--0-------------------



Riff 1 (“Welcome to the real of the dead”) :

Guitar 1 :
-----------------------------------
-----------------------------------
------------------------------------
------------------------------------
8---6-8-9-----8-6-8----6-8-9--------
--0------0----------0--------0------
 pm     pm         pm       pm     
continuation :
-----------------------------------------
-----------------------------------------
-----------------------------------------
-----------------------------------------
--8-6-8---6-8-9-----8-6-8---6-8-9---11-9-
--------0-------0---------0-------0------
       pm      pm         pm     pm   

     

Guitar 2 :
------------------------------------------
------------------------------------------
-10----8-10-11----10-8-10-----8-10-11-----
------------------------------------------
------------------------------------------
----0---------0-----------0-----------0---
   pm         pm         pm          pm 

continuation :

----------------------------------------------
----------------------------------------------
--10-8-10----8-10-11----10-8-10---8-10-11-----
----------------------------------------------
----------------------------------------------
---------0----------0-----------0---------0---
        pm         pm          pm        pm      


continuation of Riff 1 :
--------------------------
--------------------------
-----10bh-----------------
--------------------------
--------------------------
-0------------------------
pm                      end

Pre-chorus (Guitar 1 & 2) :
                                                        
-----------------------------------------------------------
-----------------------------------------------------------
--6--6--6----4--4--4-----9---9---9------7---7--7-----------
-----6--4------ 2--4-------- 9---7------7---5--5-----------
--4--4--4----2--2--2-----7---7---7------5---5--5-----------
----------------0--0-----0---0---0-------------------------
ripetere questi 2 accordi     ripetere questi due accordi
per 2 volte                           per 2 volte  

Assolo (not tabbed)


Chrorus : 
only Guitar 1 :

-------------------------------------
-------------------------------------
-------------------------------------
-------------------------------------
-7-5-0--7-5-0--7-5-7-5-0--7-5-0--7-5-
-------------------------------------

continuation :
------------------------------------
------------------------------------
------------------------------------
------------------------------------
------------------------------------
--8-7--8-7---8-7-8-7--8-7----8-7----
              qui si aggiunge la Guitar 2           

 Guitar 2 (prima di entrare) :
--------------------
--------------------
--------------------
--------------------
----/8-\------------
--------------------

Guitar 1 & Guitar 2 suonano il ritornello 2 volte. 

Lyrics : “A language…”

Guitar 2 suona questo riff per 2 volte :

-12-9-----12-9-----12-9-12-9-----12-9-----12-9----
------10-------10------------10-------10----------
--------------------------------------------------
--------------------------------------------------
--------------------------------------------------
--------------------------------------------------

--13-12-----13-12---13-12-13-12----13-12---13-12-
--------10-------10-------------10------10-------
-------------------------------------------------
-------------------------------------------------
-------------------------------------------------
-------------------------------------------------
                                             end

Guitar 1 suona il ritornello normalmente per 2 volte

Ripetere intro (Guitar 1 & 2) per 4 volte :

Fill :

------------------------------------------------
-------------guitar 2---------------------------
------------6-6h5h4h3---------------------------
-2--3--2-----------------------4-3--------------
-2--3--2---4-4h3h2h1-----------4-3--------------
-0--1--0-----------------------2-1--------------
                    guitar 1


Ripetere Riff 1 per 2 volte (Guitar 1 & 2)

Lyrics : “You claim to see my destiny…”


Fill :
-----------------------------------
----------------------------------
----------------------------------
-5-4--------4-3-------------------
-5-4--------4-3-------------------
-3-2--------2-1-------------------
“LIAR!”   “LIAR!”


Ripetere Pre-chorus (senza assolo)
Ripetere Chorus (Guitar 1 & 2)
Ripetere intro (Guitar 1 & 2) per 8 volte

Fill prima dello stacchetto di tastiere :

---------------------------------------------
-----------guitar-2--------------------------
-----------6-6h5h4h3-------------------------
-2--3--2------------------2------------------
-2--3--2--4-4h3h2h1-------2------------------
-0--1--0------------------0------------------
                         hold (fade in)  


stacchetto di tastiere…

“AAAAAAAAAAHHHH!!!!”

Ripetere Riff 1 (Guitar 1 & 2) per due volte 

Fill : 
-----------------------------
-----------------------------
-----------------------------
-5--4-----------------------
-5--4-----------------------
-3--2------------------------

pausa di mezzo secondo....

Ripetere Riff 1 ("Welcome to the realm of the dead...") per 2 volte
Ripetere Pre-chorus per 1 volta
assolo (not tabbed)
Ripetere Chrorus (Guitar 1 & 2) per 4 volte

Ripetere intro per 8 volte 

alla ottava volta :

------------------------------------------------
------------guitar------------------------------
------------6-6h5h4h3---------------------------
-2--3--2----------------------------------------
-2--3--2---4-4h3h2h1------2---------------------
-0--1--0----guitar-1------0---------------------

                                                             Fine!!!


“Questo  tutto….STAY DEATH METAL” 
                                                               
                      
                               Fasa 85
                          JESUS ANAL PENETRATION
[ Tab from: http://www.guitaretab.com/p/pestilence/42523.html ]
Related for Presence Of The Dead tab