Song name
# A B C D E F G H I J K L M N O P Q R S T U V W X Y Z

Pet Shop Boys - Home And Dry chords

Highlighted       Show chord diagrams
---------------------------------------------------------------------------
		Home and Dry - Pet Shop Boys
---------------------------------------------------------------------------
Tabbed by: maguri
Tuning: Standard

Pet Shop Boys
Home and Dry (2002)
(Tennant/Lowe)

From: "Release"

---------------------------------------------------------------------------
CHORDS (Capo 1st fret)

          e-B-G-D-A-E
Cadd9     3-3-0-x-3-x
Dsus4     3-3-0-0-x-x
G(no 3rd) 3-3-0-0-x-3
Em7       3-3-0-2-2-0
Dadd4     2-3-0-0-x-x
*Cadd9    3-3-0-2-3-x

---------------------------------------------------------------------------

Capo 1st fret

SYNTH PATTERN (throughout the whole song)
e|----------------|----------------|----------------|----------------|
B|----------------|----------------|----------------|----------------|
G|----------------|----------------|----------------|----------------|
D|----5-----------|----5-----------|----5-----------|----5-----------|
A|--3-----3-5---3-|--3-----3-5---3-|--3-----3-5---3-|--3-----3-5---3-|
E|3-----3-----3---|3-----3-----3---|3-----3-----3---|3-----3-----3---|

Or (more guitar-like)
e|----3-----------|----3-----------|----3-----------|----3-----------|
B|----------3-----|----------3-----|----------3-----|----------3-----|
G|--5-----5-----5-|--5-----5-----5-|--5-----5-----5-|--5-----5-----5-|
D|5-----5-----5---|5-----5-----5---|5-----5-----5---|5-----5-----5---|
A|----------------|----------------|----------------|----------------|
E|----------------|----------------|----------------|----------------|

---------------------------------------------------------------------------
Capo 1st fret

INTRO
N.C. 
[synth pattern: 4 bars]

| Cadd9 | Dsus4 | G(no 3rd) | % |
| Cadd9 | Dsus4 | Em7 | % |


Cadd9   Dsus4         G(no 3rd) 
  So my baby's on the road
                         Cadd9
Doing business, selling loads
         Dsus4          Em7
Charming everyone there with the sweetest smile

     Cadd9   Dsus4
Oh tonight I miss you
      G(no 3rd)
Oh tonight I wish you
         Cadd9            Dsus4
Could be here with me but I won't see you
Em7
'Til you've made it back again


*Cadd9 Dadd4 G(no 3rd)
Home   and   dry
*Cadd9 Dadd4 Em7
Home   and   dry-iy-iy

| Cadd9 | Dsus4 | Em7 | % |
| Cadd9 | Dsus4 | G(no 3rd) | % |
| Cadd9 | Dsus4 | Em7 | % |


Cadd9       Dsus4      G(no 3rd) 
  There's a plane at JFK
                          Cadd9
To fly you back from far away
          Dsus4            Em7
All those dark and frantic transatlantic miles

     Cadd9   Dsus4
Oh tonight I miss you
      G(no 3rd)
Oh tonight I wish you
         Cadd9            Dsus4
Could be here with me but I won't see you
Em7
'Til you've made it back again

*Cadd9 Dadd4 G(no 3rd)
Home   and   dry
*Cadd9 Dadd4 Em7
Home   and   dry-iy-iy
*Cadd9 Dadd4 G(no 3rd)
Home   and   dry
*Cadd9 Dadd4 Em7
Home   and   dry-iy-iy


Cadd9 Dsus4       G(no3rd)
Far  away through night and day
    Cadd9    Dsus4  Em7
You fly long haul tonight
Cadd9   Dsus4   G(no3rd)
Come to me, you know I'll be here
Cadd9    Dsus4  Em7
When you call tonight


     Cadd9   Dsus4
Oh tonight I miss you
      G(no 3rd)
Oh tonight I wish you
         Cadd9            Dsus4
Could be here with me but I won't see you
Em7
'Til you've made it back again


*Cadd9 Dadd4 G(no 3rd)
Home   and   dry
*Cadd9 Dadd4 Em7
Home   and   dry-iy-iy
*Cadd9 Dadd4 G(no 3rd)
Home   and   dry
*Cadd9 Dadd4 Em7
Home   and   dry-iy-iy

| Cadd9 | Dsus4 | G(no 3rd) | % |
| Cadd9 | Dsus4 | Em7 | % |
(repeat and fade)
Tap to rate this tab
# A B C D E F G H I J K L M N O P Q R S T U V W X Y Z