Song name
# A B C D E F G H I J K L M N O P Q R S T U V W X Y Z

Pet Shop Boys - Searching For The Face Of Jesus chords

Highlighted       Show chord diagrams
---------------------------------------------------------------------------
		Searching for the Face of Jesus - Pet Shop Boys
---------------------------------------------------------------------------
Tabbed by: maguri
Tuning: Standard

Pet Shop Boys
Searching for the Face of Jesus (2002)
(Tennant/Lowe)

From: "I Get Along" (Maxi)

---------------------------------------------------------------------------
Capo 3rd fret

INTRO / OUTRO
  D7(no 3rd)
e|----------------|----------------|----------------|----------------|
B|------1---------|----------------|------1---------|----------------|
G|----------2---0-|------0---2-----|----------2---0-|------0---2-----|
D|----0-------0---|--2-0-------0-2-|----0-------0---|--2-0-------0---|
A|--0-------------|----------------|--0-------------|----------------|
E|----------------|----------------|----------------|----------------|

---------------------------------------------------------------------------
CHORDS
          e-B-G-D-A-E
D7(no3rd) x-1-2-0-0-x
E/A       0-0-1-2-0-x
Db7       x-2-4-3-4-x
Db7/B     1-0-1-3-2-x
A7sus2    0-0-0-2-0-x

---------------------------------------------------------------------------
Capo 3rd fret

INTRO
| D7 (no3rd) | % | % | % |
| D7 (no3rd) | % | % | % |

D                   Em7          F#m7
 He believed if you had a little faith
          Gmaj7
You could stop the rain
D                       Em7          F#m7
 And he believed if you got a little love
         Gmaj7
It would ease the pain
    Bm              E/A     Amaj7
But still he's suffering

Dmaj7                     Db7
Searching for the face of Jesus
Dmaj7           Em7      A
Looking for the light we need
Dmaj7                     Db7
Searching for the face of Jesus
Dmaj7          Em7      A
Painted in the blood we bleed


E                 Em7            F#m7
 By the side of a giant swimming-pool
       Gmaj7
With a mystic book
E                     Em7                  F#m7
 Hanging out with the guys and playing the fool
       Gmaj7
Fat as King Farouk
    Bm             E/A      Amaj7
But look he's suffering

Dmaj7                     Db7
Searching for the face of Jesus
Dmaj7             Em7   A
Downtown Memphis, Tennessee
Dmaj7                     Db7
Searching for the face of Jesus
Dmaj7        Em7  A
Science is a mystery

Gmaj7   Em7                 Dmaj7
 Oh and sometimes there's a close shave
Em7              B
 They come, they go
Gmaj7      Em7                  Dmaj7
 Keeps the flowers fresh at his mom's grave
    Em7             A7sus2
And talks to her as though...

| Dmaj7 | Db7 | Dmaj7 Em7 | A |
| Dmaj7 | Db7 | Dmaj7 Em7 | A |

Dmaj7                     Db7/B
Searching for the face of Jesus
Dmaj7           Em7      A
Looking for the light we need
Dmaj7                     Db7/B
Searching for the face of Jesus
Dmaj7          Em7      A
Painted in the blood we bleed

Dmaj7                     Db7/B
Searching for the face of Jesus
Dmaj7             Em7   A
Downtown Memphis, Tennessee
Dmaj7                     Db7/B
Searching for the face of Jesus
Dmaj7        Em7  A
Science is a mystery

| Dmaj7 | Db7 | Dmaj7 Em7 | A |
| Dmaj7 | Db7 |

Dmaj7        Em7  A
Science is a mystery

OUTRO
| D7(no3rd) | % | % | % |
| D7(no3rd) | % | % | % | D7
Tap to rate this tab
 
# A B C D E F G H I J K L M N O P Q R S T U V W X Y Z