Guitaretab - guitar tabs
Song name
# A B C D E F G H I J K L M N O P Q R S T U V W X Y Z

Pete And The Pirates - Come On Feet tab

guitar 1

intro and chorus

e|-------------4-------------------------------------------------------------|
B|-5-----------5-----x8----0----------5--------------------------------------|
G|-6-----x8----x-----------1----x8----6----x8--------------------------------|
D|-x-----------6-----------x----------x--------------------------------------|
A|-7-----------------------2----------7--------------------------------------|
E|---------------------------------------------------------------------------|

repeating that is pretty much the chorus and the intro and bits inbetween (you can tell)


versey bit and played behind solo

e|--4------------------------------------------------------------------------|
B|--5--x8----0---------------------------------------------------------------|
G|--x--------1--x8-----------------------------------------------------------|
D|--7--------x---------------------------------------------------------------|
A|-----------2---------------------------------------------------------------|
E|---------------------------------------------------------------------------|

repeat those two sets of chords and thats pretty much guitar 1. (outro is the guitarist 
with the singer and the bassist and i think the drummer)

just before the the outro part for guitar 2 both guitars play the chorus chords 4 times.

guitar 2

silent for the intro but comes in on the verse with:
[ Tab from: http://www.guitaretab.com/p/pete-and-the-pirates/105623.html ]
e|--4--------7---------------------------------------------------------------|
B|--5----x4--9----x4---------------------------------------------------------|
G|--6--------9---------------------------------------------------------------|
D|--6--------9---------------------------------------------------------------|
A|--4--------7---------------------------------------------------------------|
E|---------------------------------------------------------------------------|

its best to damp the verse chords (it makes it sound better)

solo

e|--4-------4-------7-------7-7-7-7------------------------------------------|
B|----------------------9---9-9-9-9------------------------------------------|
G|------5-------5-------------x-x-x------------------------------------------|
D|----6---6---6---6---9---9-----9-9------------------------------------------|
A|---------------------------------------------------------------------------|
E|---------------------------------------------------------------------------|

play 4 times, but on fourth time play the C# bit (begining half of solo) twice instead 
the E bit (second half of solo)

just before the the outro part below both guitars play the chorus chords 4 times.

outro

e|--5~-----------------------------------------------------------------------|
B|--5~-----------------------------------------------------------------------|
G|--6~--x7-------------------------------------------------------------------|
D|--7~-----------------------------------------------------------------------|
A|--7~-----------------------------------------------------------------------|
E|--5~-----------------------------------------------------------------------|

then on the 8th time he plays the A chord 4 times more rapidly.
Related for Come On Feet tab