Guitaretab - guitar tabs
Song name
# A B C D E F G H I J K L M N O P Q R S T U V W X Y Z

Pete And The Pirates - Knots tab

hope you find this helpful!

guitar 2 - main riff begins during this
e|--0--5--0--3~~--0-----0--5~~-------|
B|-------------------1---------------|
G|-----------------------------------|
D|-----------------------------------|
A|-----------------------------------|
E|-----------------------------------|

main riff

guitar 1
e|-----------------------------|
B|-----------------------------|
G|-------555-------------------|
D|-----------55-333-222-2h3p0--|
A|---333-----------------------|
E|-----------------------------|

guitar 2 just plays open C and open F in verse

"sometimes i cant see your face" part
[ Tab from: http://www.guitaretab.com/p/pete-and-the-pirates/106399.html ]
e|---------------------------------------------|  -----------|
B|---------------------------------------------|  -----------|
G|--99999999-77777777-55555555-1010101010101010| 2nd time-5--|
D|--xxxxxxxx-xxxxxxxx-xxxxxxxx-x-x-x-x-x-x-x-x-|  -end on-x--|
A|--77777777-55555555-33333333-8-8-8-8-8-8-8-8-|  --------3--|
E|---------------------------------------------|  -----------|

chorus

guitar 1
e|-0-0-0-0-0-0-0-0-0-0-0-0-0-0-0-0-0-0-0-0--|
B|-5-5-5-5-5-5-5-6-5-6-5-5-5-5-6-5-5-5-6-5--|
G|------------------------------------------| X 2
D|------------------------------------------|
A|------------------------------------------|
E|------------------------------------------|

guitar 2
e|-------------------------------------|
B|-------------------------------------|
G|--99999999999999999999999999999999---|
D|--xxxxxxxxxxxxxxxxxxxxxxxxxxxxxxxx---|
A|--77777777777777777777777777777777---|
E|-------------------------------------|

verse

chorus

bridge (same as intro but main riff is palm muted at first, eventually both guitars play main riff untill end)

end on a C 

hope its okay!

Related for Knots tab