Guitaretab - guitar tabs
Song name
# A B C D E F G H I J K L M N O P Q R S T U V W X Y Z

Pete And The Pirates - Bright Lights tab

Intro
e|----------------------------------------------------|
B|----------------------------------------------------|
G|-----------------------------------------77---------|
D|--------------------------------------------55------|
A|-------------------------------3333-5555------------|
E|--555-3-000-3-555-3-000-3-1111----------------------|

Verse
e|---------------------|
B|---------------------|
G|---------------------| 
D|---2-2-2-2-0-0-0-0---|
A|--0-0-0-0-2-2-2-2----|
E|---------------------|

Chorus
e|-----------------------------------|
B|-----------------------------------|
G|-----------------55-77--77---------|
D|--77-22-77-22-33-55-77-----55-----|Second guitar plays an open Athrough 
A|--77-22-77-22-33-33-55-------------|               chorus
E|--55-00-55-00-11-------------------|  

Verse
[ Tab from: http://www.guitaretab.com/p/pete-and-the-pirates/167411.html ]
Solo Guitar 1                             Guitar 2
e|-----------------5555--------------| e|-------------------------------------|
B|------------3333-------------------| B|-------------------------------------|
G|-------5555------------------------| G|-------------------------------------|
D|--7777-----------------------------| D|-77777777-55555555-22222222-33333333-|
A|-----------------------------------| A|-77777777-55555555-22222222-33333333-|
E|-----------------------------------| E|-55555555-33333333-00000000-11111111-|


Chorus
Intro
Verse

Outro
e|---------------------------------------------------------------------------|
B|---------------------------------------------------------------------------|
G|---------------------------------------------------------------------------|
D|--77-77-77-----------------------------------------------------------------|
A|--77-77-77-----------------------------------------------------------------|
E|--55-55-55-----------------------------------------------------------------|
Related for Bright Lights tab