Song name
# A B C D E F G H I J K L M N O P Q R S T U V W X Y Z

Pete Doherty - The Last Of The English Roses tab

Help us improve GuitareTab! Take a short survey!
Last Of The English Roses, Intro
------------------------------------------------------------

1st part:
(0:10 - 0:14)

lead guitar intro:

  1 + 2 + 3 + 4 + 1 + 2 + 3 + 4 +

e ------7---7---5-7-5---10--7---5-


2nd part:
(0:14 - 0:33)

guitar 1:

  1   2   3   4   1   2   3   4   1   2   3   4   1   2   3   4

e ----4-------4-------5-------5-------4-------4-------5-------5----|
B ----5-------5-------5-------5-------5-------5-------5-------5----|
G ----6-------6-------6-------6-------6-------6-------6-------6----|
D ----6-------6-------7-------7-------6-------6-------7-------7----|
A 4----------------------------------------------------------------|
E 4----------------------------------------------------------------|

lead continued from 1st part:

e 7-5-------------------------12--9--------------------------------

guitar 2:

e -----------------------------------------------------------------|
H -----------------------------------------------------------------|
G -----------------------------------------------------------------|
D 6---6-x666666\--2---2-x222222---6---6-x666666\--2---2-x222222----|
A -----------------------------------------------------------------|
E -----------------------------------------------------------------|

guitar 1:

e ----4-------4-------5-----5-5---|
B ----5-------5-------5--5x-5-5-0-|
G ----6-------6-------6--6x-6-6-0-|
D ----6-------6-------7--7x-7-7---|
A --------------------------------|
E --------------------------------|

guitar 2:

e --------------------------------|
B --------------------------------|
G --------------------------------|
D 6---6-x666666\--2---2-x222222---|
A --------------------------------|
E --------------------------------|


guitar 1:

  1 + 2 + 3 + 4 + 1 + 2 + 3 + 4 +

e ----0---------------------------|
B ----0-------0---0-----------0---|
G ----1-------1---1-----------1---|
D 2-2-2-----2-2---2-----------2---|
A 2-2-------2-2---2-----------2---|
E 0-0-------0-0---0-----------0---|

lead guitar playing harmonics:

e --------------------------------|
B ------------12--12--------------|
G --------------------------------|
D ----------------------12--------|
A --------------------------------|
E --------------------------------|

guitar 2:

  1 + 2 + 3 + 4 + 1 + 2 + 3 + 4 +

e --------------------------------|
H --------------------------------|
G --------------------------------|
D ----6-x6--6-6---6---6-x6--6-6-6-|
A --------------------------------|
E --------------------------------|

------------------------------------------------------------------------

Chords:

C#m - A - C#m - A - C#m - A - E - E
Related for The Last Of The English Roses tab