Song name
# A B C D E F G H I J K L M N O P Q R S T U V W X Y Z

Pete Droge - Going Whichever Way The Wind Blows tab

--------------------------------------------------------------------------------------------------
                              Going Whichever Way The Wind Blows - Pete Droge
--------------------------------------------------------------------------------------------------
Tabbed by: ksw3153
Email: ksw3153@gmail.com

My first tab, I think I got it pretty much right, but I realized as I was finishing this 
it would be ALOT
easier in an open D tuning, will post tabs for this next.

Tuning: Standard


Intro

e|--------------------------------------------------------------------------|
B|-3-------3-------3-------3-------3-------3---3---3------------3-----------|
G|----2-2-----2-2-----0-2-------2-----2-2---------------2-2---------2-2-----|
D|-0-------------------------4------------------------2-----2-----2-----2/4-|
A|---------4-------2-------0-----------------------0------------------------|
E|---------------------------------3-------2---3----------------------------|

Chorus

e|----------------------------------------------------------------------------------------------|
B|-3-------3-------3-------3-------3---3---3-------3---------3---3---3---------------3----------|
G|----2-2-----0-2-----2-2-----2-2-------------0-2-----0-2-------------------2-2----------2-2----|
D|-0----------------------------------------------------------------------2-----2------2-----2/4|
A|-----4---2---0-----------------------------------------------------0--------------------------|
E|-----------------3-------2-------3---2---0-----------------3---2------------------------------|

Bridge

e|-----------------------------------|
B|-3-------3--------3-------3--------|
G|----0-2-----0-2------2-2-----2-2---|
D|---2----2--2----2---2----2--2----2-|
A|-2----------------0----------------|
E|-----------------------------------|

Bridge2 (same as Intro w/ extended end)

e|-----------------------------------------------------------------------------------------------|
B|-3-------3-------3-------3-------3-------3---3---3------------3-------------3------------3-----|
G|----2-2-----2-2-----0-2-------2-----2-2---------------2-2---------2-2-----------2-2---------2-2|
D|-0-------------------------4------------------------2-----2-----2-----2-------2-----2-----2---2|
A|---------4-------2-------0-----------------------0--------------------------0------------------|
E|---------------------------------3-------2---3-------------------------------------------------|

Chorus2

e|---------------------------------------------------------|
B|-3-------3-------3-------3-------3---3---3-------3-------|
G|----2-2-----0-2-----2-2-----2-2-------------0-2-----0-2--|
D|-0-------------------------------------------------------|
A|-----4---2---0-------------------------------------------|
E|-----------------3-------2-------3---2---0---------------|

| /  slide up
| \  slide down
| h  hammer-on
| p  pull-off
| ~  vibrato
| +  harmonic
| x  Mute note


intro
chorus  x2
bridge  x2
chorus  x2
bridge  x2
bridge2
bridge  x2
chorus2 x2
Outro

Going whichever way the wind blows,
you were caught in your world,
I was lost in mine.

Going whichever way the wind blows,
staring through the windshield,
seeing the other side.
let it go, it will get easier,
let it go, just enjoy the ride.

Going whichever way the wind blows,
Spacing on the road map,
useless dots and lines.

Going whichever way the wind blows,
tearing out the pages,
just to watch 'em fly,
let it go, it will get easier,
let it go, just enjoy the ride.

let it go, it will get easier,
let it go, just enjoy the ride.

Going whichever way the wind blows,
Going whichever way the wind blows,
stare into the rearview, leave it all behind
Tap to rate this tab
# A B C D E F G H I J K L M N O P Q R S T U V W X Y Z