Song name
# A B C D E F G H I J K L M N O P Q R S T U V W X Y Z

Pete Francis - Johnny Ochos Lullaby tab

Verse:
---------3-----------3---------3----------3---|
---1s3-5---5--3--5---5---1s3-5---5--3-----5---|
---------------------5----------------5---5---|
---------------------5--------------------5---|
---------------------3--------------------3---|
----------------------------------------------|


Chorus:
---1-----3---|
---1-----5---|
---2-----5---|
---3-----5---|
---3-----3---|
---1---------|
Tap to rate this tab
# A B C D E F G H I J K L M N O P Q R S T U V W X Y Z