Song name
# A B C D E F G H I J K L M N O P Q R S T U V W X Y Z

Pete Francis - Iron Sea And The Calvary tab

Highlighted       Show chord diagrams
Tabbed By Rusty Snow
Artist:Pete Francis
Album:Iron Sea and the Calvary
Song:Iron Sea and the Calvary

Great track off Repete's new album.. Go buy it great driving album.. easy songs to 
along to

Iron Sea and the Calvary
  Em   A    C    G
--0----0----0----3--|
--0----2----1----3--|
--0----2----0----0--|  x2
--2----2----2----0--|
--2----0----3----2--|
--0----0----0----3--|
Sunrise...


  G    Am   C    G
--3----0----0----3--|
--3----1----1----3--|
--0----2----0----0--|  x1
--0----2----2----0--|
--2----0----3----2--|
--3----0----0----3--|
Wait,wait...


  Em   A    C    G
--0----0----0----3--|
--0----2----1----3--|
--0----2----0----0--|  x2
--2----2----2----0--|
--2----0----3----2--|
--0----0----0----3--|


  G    Am   C    G
--3----0----0----3--|
--3----1----1----3--|
--0----2----0----0--|  x2
--0----2----2----0--|
--2----0----3----2--|
--3----0----0----3--|


Chords over guitar solo... might not be 100% correct but it sounds like variations of 
chords here
  G    G    C    G
--3----3----0----3--|
--3----3----1----3--|
--0----0----0----0--|
--0----0----2----0--|  x2
--2----2----3----2--|
--3----3----0----3--|

  Em   A    C    G
--0----0----0----3--|
--0----2----1----3--|
--0----2----0----0--|  x4
--2----2----2----0--|
--2----0----3----2--|
--0----0----0----3--|

  G    Am   C    G
--3----0----0----3--|
--3----1----1----3--|
--0----2----0----0--|  x2
--0----2----2----0--|
--2----0----3----2--|
--3----0----0----3--|


  Em   A    C    G
--0----0----0----3----------------------------|
--0----2----1----3----------------------------|
--0----2----0----0----------------------------| ending  
--2----2----2----0----------------------------|   
--2----0----3----2----------------------------|
--0----0----0----3----------------------------|

thats basically it for this song.. 
this the first PF tab off his new album so i hope you enjoy and buy his new album!!


any questions comments email stras16@moravian.edu
Tap to rate this tab
# A B C D E F G H I J K L M N O P Q R S T U V W X Y Z