Song name
# A B C D E F G H I J K L M N O P Q R S T U V W X Y Z

Pete Francis - One Train tab

                             PETE FRANCIS
                              ONE TRAIN


standard tuning
EADGBe


intro acoustic
-------7----------7----------7----------5-4---|
---4h5---4----4h5---5----4h5---4----4h5-------|
----------------------------------------------|
----------------------------------------------|
----------------------------------------------|
----------------------------------------------|

strummed throughout the song
-------------------------------------------------------------------------|
------------2-2-2-------------2-2-2-------------2-2-2-------------2-2-2--|
---4-4-4----2-2-1----4-4-4----2-2-1----4-4-4----2-2-1----4-4-4----2-2-1--|
---2-2-1----2-2-2----2-2-1----2-2-2----2-2-1----2-2-2----2-2-1----2-2-2--|
---2-2-2-------------2-2-2-------------2-2-2-------------2-2-2-----------|
-------------------------------------------------------------------------|

after the verse this is played
-------7----------5-4--------7----------5-4------|
---4h5---4----4h5--------4h5---4----4h5----------|
-------------------------------------------------|
-------------------------------------------------|
-------------------------------------------------|
-------------------------------------------------|


-------------------------------------------------------------------------|
------------2-2-2-------------2-2-2-------------2-2-2-------------2-2-2--|
---4-4-4----2-2-1----4-4-4----2-2-1----4-4-4----2-2-1----4-4-4----2-2-1--|
---2-2-1----2-2-2----2-2-1----2-2-2----2-2-1----2-2-2----2-2-1----2-2-2--|
---2-2-2-------------2-2-2-------------2-2-2-------------2-2-2-----------|
-------------------------------------------------------------------------|


thats pretty much it
good song
peace
Tap to rate this tab
# A B C D E F G H I J K L M N O P Q R S T U V W X Y Z