Song name
# A B C D E F G H I J K L M N O P Q R S T U V W X Y Z

Pete Murray - See The Sun tab

-------------------------------------------------------------------------------
			     See The Sun - Pete Murray
-------------------------------------------------------------------------------

Tabbed by Trickstar 


Standard Tuning

A great song by Pete Murray, and easy as to play. There is one riff that remains the same 

throughtout the whole song. I personally think it sounds better, and easier to play when 

finger-picked. Enjoy :)


Intro/Verse/Chorus/Outro
Clean electric, but also sounds good on acoustic	
e|--------------------------------------------------|
B|-------1----------1----------1---------1----1-----|
G|----------0----------0---------0----------0---0---|
D|-----2----------2----------2---------2------------|
A|-0-0----------------------------------------------|
E|------------3-3--------2-2-------2/3--------------|

Verse

Where's a word
That we learn to know
And where's a word
That we should go

Chorus

Can you be the one
Can you see the sun
With me

Verse

Hate's a word
That we learn to use
And vain's a sign
That is old and abused

Chorus

Can you be the one
Can you see the sun
With me


Here the solo comes in. The solo is played on two guitars. Guitar 1 is the same as the clean 

electric one used in the main riff. Im not too sure if Guitar 2 consists of fast alternative 

picking with distortion or just one pick under the effect of distortion with delay. I don't have 

delay so I just alternate pick it.

Pre-solo

Guitar 1 - main riff x2

Guitar 2
	      Am	
e|--------------------------------------------|
B|--------------------------------------------|
G|--------------------------------------------|
D|-----------x-x-x-x-x---7-----x-x-x-x-x------|
A|-----------x-x-x-x-x---7-----x-x-x-x-x------|
E|-----------x-x-x-x-x---5-----x-x-x-x-x------|

Solo

Guitar 1

e|----------------------------------------|
B|----------------------------------------|
G|----------------------------------------|4x - after 4th riff go straight into main riff
D|----------------------------------------|
A|-0-0---3-3---5-5---3-3-5-3--------------|
E|----------------------------------------|

Guitar 2

e|-------------------------------------------------2-2-2-2-2-2-2-2-----------|
B|-1-1-1-1-1-1-1-1-0-0-0-0-0-0-0-0-3-3-3-3-3-3-3-3---------------------------|
G|---------------------------------------------------------------------------|
D|---------------------------------------------------------------------------|
A|---------------------------------------------------------------------------|
E|---------------------------------------------------------------------------|

e|-------------------------------------------------2-2-2-2-3-3-3-3-----------|
B|-1-1-1-1-1-1-1-1-0-0-0-0-0-0-0-0-3-3-3-3-3-3-3-3---------------------------|
G|---------------------------------------------------------------------------|
D|---------------------------------------------------------------------------|
A|---------------------------------------------------------------------------|
E|---------------------------------------------------------------------------|

e|-2-2-2-2-2-2-2-2-2-2-2-2-2-2-2-2-3-3-3-3-3-3-3-3-3-3-3-3-3-3-3-3-----------|
B|---------------------------------------------------------------------------|
G|---------------------------------------------------------------------------|x2
D|---------------------------------------------------------------------------|
A|---------------------------------------------------------------------------|
E|---------------------------------------------------------------------------|

I'm here and I'm never gone
I'm here and I'm never gone
I'm here and I'm never gone
I'm here and I'm never gone

Outro

Can you be the one
Can you see the sun
With me
With me
With me
With me
With me 

And there you have it! Any comments or questions feel free to email me at datrickstar@hotmail.com

| /  slide up
| \  slide down
| h  hammer-on
| p  pull-off
| ~  vibrato
| +  harmonic
| x  Mute note
===============================================================================
Tap to rate this tab
 
# A B C D E F G H I J K L M N O P Q R S T U V W X Y Z