Song name
# A B C D E F G H I J K L M N O P Q R S T U V W X Y Z

Pete Murray - Smile tab

_____________________________
SMILE   -  Pete Murray
_____________________________

by Bruno Mucciolo

It's very easy and straight forward. I'm 99% sure this is the correct tab.
I have to dedicate it to a very nice mate that once mentioned Pete Murray to me,
in the smallest living room you will ever find in London.
Cheers Rob!

__________
TABLATURE:
__________

Tuning: E

CAPO: 1st


INTRO:

=Guitar 1=

   Bb7M                              Eb7M

E-----------------------------------------------------------------|
B---6--6----6-6-6-6-6-6---6--6-------8--8----8-8-8-8-8-8---8--8---|
G---7--7----7-7-7-7-7-7---7--7-------7--7----7-7-7-7-7-7---7--7---|repeat 4x
D---7--7----7-7-7-7-7-7---7--7-------8--8----8-8-8-8-8-8---8--8---|
A---0--0----0-0-0-0-0-0---0--0-------6--6----6-6-6-6-6-6---6--6---|
E---6--6----6-6-6-6-6-6---6--6------------------------------------|


=Guitar 2=

E---5--5--5--5--5--5--5~-------------6--6--6--6--6--6--6~---------|
B---6--6--6--6--6--6--6~-------------6--6--6--6--6--6--6~---------|
G-----------------------------------------------------------------|repeat 2x
D-----------------------------------------------------------------|
A-----------------------------------------------------------------|
E-----------------------------------------------------------------|

VERSE:

 ______________Please come walk with me______________And we will walk fore-(return)
E----------------------------------------6-------------6----------|
B---6-----6-------------6------------8------8-------8----8--------|
G---7---7-----7------6---------------7---------7--7--------7------|repeat 2x
D---7-------------7------------------8----------------------------|
A---0--------------------------------6----------------------------|
E---6-------------------------------------------------------------|

______________________Feel the sunny day_____________believe your time has-
E-----------------------------------------------------------------|
B---6--6----6-6-6-6-6-6---6--6-------8--8----8-8-8-8-8-8---8--8---|
G---7--7----7-7-7-7-7-7---7--7-------7--7----7-7-7-7-7-7---7--7---|repeat 2x
D---7--7----7-7-7-7-7-7---7--7-------8--8----8-8-8-8-8-8---8--8---|
A---0--0----0-0-0-0-0-0---0--0-------6--6----6-6-6-6-6-6---6--6---|
E---6--6----6-6-6-6-6-6---6--6------------------------------------|


CHORUS:

     E                               D5/A
 ____Come today_____________
E------------------------------------0----0--0--0-----------------|
B------------------------------------3----3--3--3-----------------|
G----1-----1--1--1--1--1-------------2----2--2--2-----------------|repeat 2x
D----2-----2--2--2--2--2-------------0----0--0--0-----------------|
A----2-----2--2--2--2--2-------------0----0--0--0-----------------|
E----0-----0--0--0--0--0------------------------------------------|


INTERLUDE:

=Bass=
    Bb7M               Eb7M               Bb7M              Eb7M
E----------------------------------------------------------------------|
B----------------------------------------------------------------------|
G--------5-------------------------------------------------------------|repeat
D---7---------7-8-10--8-------8h7--------------------------------------|
A---------------------------------------------------------5--6--8--6~--|
E----------------------------------10--8---10-10--8--------------------|

=Guitar 1=
E-----------------------------------------------------------------|
B---6--6----6-6-6-6-6-6---6--6-------8--8----8-8-8-8-8-8---8--8---|
G---7--7----7-7-7-7-7-7---7--7-------7--7----7-7-7-7-7-7---7--7---|repeat 2x
D---7--7----7-7-7-7-7-7---7--7-------8--8----8-8-8-8-8-8---8--8---|
A---0--0----0-0-0-0-0-0---0--0-------6--6----6-6-6-6-6-6---6--6---|
E---6--6----6-6-6-6-6-6---6--6------------------------------------|

=Guitar 2=
E---6--5-3-5-3h5-0~-----6--5-3-5-5h6-3~---------6--5-3-5-3h5-0~-----6--5-3-5-6~-|
B-------------------------------------------------------------------------------|
G-------------------------------------------------------------------------------|
D-------------------------------------------------------------------------------|
A-------------------------------------------------------------------------------|
E-------------------------------------------------------------------------------|

=Guitar 2=
E----0h3h5h6--0h3h5h6---|
B-----------------------|
G-----------------------|repeat 2x
D-----------------------|
A-----------------------|
E-----------------------|

_________
CHORDS:
_________

Tuning: E

CAPO: 1st


Chords with CAPO (1st):

  |    Bb7M:    |     Eb7M:   |  E:  | D5/A: |
E |  0       0  |  6       3  |  0   |   0   |
B |  6       3  |  8       3  |  0   |   3   |
G |  7  or   2  |  7   or  3  |  1   |   2   |
D |  7       3  |  8       0  |  2   |   0   |
A |  0       0  |  6       0  |  2   |   0   |
E |  6       X  |  X       0  |  0   |   X   |


INTRO:  Bb7M  Eb7M

Bb7M                       Eb7M
     Please come walk with me, And we will walk for-

Bb7M                       Eb7M
 ever   Come and touch my skin , You control my

Bb7M                       Eb7M
shiver          Feel Sunny Day  , Believe your time has


E                  D5/A
come today   Throw in your prime

    E                 D5/A
And know its here  To Stay


Bb7M  Eb7M


Bb7M                       Eb7M
               I have seen days , When your smile goes on for

Bb7M                       Eb7M
ever      You light up the room , In the deepest darkest

Bb7M                       Eb7M
weather          Feel Sunny Day, Believe your time has


E                  D5/A
come today   Throw in your prime

    E              D5/A
And know its here  To Stay

   E               D5/A
Be free to see  Your smile soft sway

   E               D5/A
Im sure you want this day


Bb7M Eb7M (6X)

                      E
Believe your time has come today

      D5/A
Throw in your prime

    E                D5/A
And know its here To Stay

   E                 D5/A
Be free to see  Your smile soft sway

   E                 D5/A
Im sure you want this day

            Bb7M
Ba ba da da da da

            Eb7M
Ba ba da da da da

...

__________________________________________________________________________
Please let me know if you have any correction! Cheers!!
Tap to rate this tab
# A B C D E F G H I J K L M N O P Q R S T U V W X Y Z