Song name
# A B C D E F G H I J K L M N O P Q R S T U V W X Y Z

Pete Murray - Class A tab

Main Riff Used During Verse: Capo on 1st Fret

e|----------------------------------------------|
b|----------------------------------------------|
g|----------------------------------------------|
d|------------------------------3---------------|
a|---3/5-5-x-0-3--0---------3/5-----------------|
E|-------------------3-3-x----------------------|


Chorus:

Alternate Between Strumming D & G or pick this:


e|---2-----2------3-----3-----|
b|-------3---3--------3---3---|
g|----------------------------|
d|----------------------------|
a|----------------------------|
E|----------------------------|

Solo:
e|--------------------------------------------|
B|--------------------------------------------|
G|--10/11-11-11ó10/11-11-11-11/7/5\9/7--------|
D|--------------------------------------------|
A|--------------------------------------------|
E---------------------------------------------|


Thatís it pretty easy stuff but sounds cool
Tap to rate this tab
# A B C D E F G H I J K L M N O P Q R S T U V W X Y Z