Song name
# A B C D E F G H I J K L M N O P Q R S T U V W X Y Z

Pete Murray - Saving Grace tab

Help us improve GuitareTab! Take a short survey!
                     Pete Murray- Saving Grace

Intro:

e|-----------------------------------------------------------------|
b|-----------------------------------------------------------------|
g|------------------3---3--3-3-3--------------------6---6--6-6-6---|
d|--4---4--4-4-4----3---3--3-3-3----6---6--6-6-6----6---6--6-6-6---|
a|--4---4--4-4-4----1---1--1-1-1----6---6--6-6-6----4---4--4-4-4---|
E|--2---2--2-2-2--------------------4---4--4-4-4-------------------|x2

First verse:

e|-----------------------------------------------------------------|
b|-----------------------------------------------------------------|
g|------------------3---3--3-3-3--------------------6---6--6-6-6---|
d|--4---4--4-4-4----3---3--3-3-3----6---6--6-6-6----6---6--6-6-6---|
a|--4---4--4-4-4----1---1--1-1-1----6---6--6-6-6----4---4--4-4-4---|
E|--2---2--2-2-2--------------------4---4--4-4-4-------------------|x4

Chorus:

e|-----------------------------------------------------------------|
b|-----------------------------------------------------------------|
g|--4-4-4-4-4-4---------------33xx---------------------------------|
d|--4-4-4-4-4-4--6-6-6-6-6-6--33xx-66xx--4-44444-------------------|
a|--2-2-2-2-2-2--6-6-6-6-6-6--11xx-66xx--4-44444-------------------|
E|---------------4-4-4-4-4-4-------44xx--2-22222-x3----------------|

e|-----------------------------------------|
b|-----------------------------------------|
g|--4-4-4-4-4-4----------------------------|
d|--4-4-4-4-4-4--6-6-6-6-6-6--4-4-4-4-4-4--|
a|--2-2-2-2-2-2--6-6-6-6-6-6--4-4-4-4-4-4--|
E|---------------4-4-4-4-4-4--2-2-2-2-2-2--|x1

Second verse:

e|-----------------------------------------------------------------|
b|-----------------------------------------------------------------|
g|------------------3---3--3-3-3--------------------6---6--6-6-6---|
d|--4---4--4-4-4----3---3--3-3-3----6---6--6-6-6----6---6--6-6-6---|
a|--4---4--4-4-4----1---1--1-1-1----6---6--6-6-6----4---4--4-4-4---|
E|--2---2--2-2-2--------------------4---4--4-4-4-------------------|x4

Chorus:

e|-----------------------------------------------------------------|
b|-----------------------------------------------------------------|
g|--4-4-4-4-4-4---------------33xx---------------------------------|
d|--4-4-4-4-4-4--6-6-6-6-6-6--33xx-66xx--4-44444-------------------|
a|--2-2-2-2-2-2--6-6-6-6-6-6--11xx-66xx--4-44444-------------------|
E|---------------4-4-4-4-4-4-------44xx--2-22222-x3----------------|

e|-----------------------------------------|
b|-----------------------------------------|
g|--4-4-4-4-4-4----------------------------|
d|--4-4-4-4-4-4--6-6-6-6-6-6--4-4-4-4-4-4--|
a|--2-2-2-2-2-2--6-6-6-6-6-6--4-4-4-4-4-4--|
E|---------------4-4-4-4-4-4--2-2-2-2-2-2--|x1

Bridge:

e|---------------------------------------------------------|
b|---------------------------------------------------------|
g|--9-999999999--6-666666666----3-333333333--4-444444444---|
d|--9-999999999--6-666666666----3-333333333--4-444444444---|
a|--7-777777777--4-444444444-x2-1-111111111--2-222222222---|x1
E|---------------------------------------------------------|

Third verse:

e|-----------------------------------------------------------------|
b|-----------------------------------------------------------------|
g|------------------3---3--3-3-3--------------------6---6--6-6-6---|
d|--4---4--4-4-4----3---3--3-3-3----6---6--6-6-6----6---6--6-6-6---|
a|--4---4--4-4-4----1---1--1-1-1----6---6--6-6-6----4---4--4-4-4---|
E|--2---2--2-2-2--------------------4---4--4-4-4-------------------|x4

Chorus:

e|-----------------------------------------------------------------|
b|-----------------------------------------------------------------|
g|--4-4-4-4-4-4---------------33xx---------------------------------|
d|--4-4-4-4-4-4--6-6-6-6-6-6--33xx-66xx--4-44444-------------------|
a|--2-2-2-2-2-2--6-6-6-6-6-6--11xx-66xx--4-44444-------------------|
E|---------------4-4-4-4-4-4-------44xx--2-22222-x3----------------|


                          ++End++
Related for Saving Grace tab